Oops, an error
Loading. Please wait.

Arti Kawan Chords

4,407 views 6 this week
1 commentread comment
1 2 3 4 5
please rate
add to favorites
launch autoscroll
font size
0
reset
transpose
0
reset
display chords
guitar tuner
Autoscroll
slow
fast
+/-
esc
set tempo
stop
Help us to improve Ultimate-Guitar.com Take our survey!
×
Author
Difficulty
intermediate
---------------------------------------------------------------------------
                          Arti Kawan - Pas Band
---------------------------------------------------------------------------
Tabbed by: choshech
E-Mail: r4nc1d_b0y@yahoo.com

Tuning: Standard

e|--------------------------------|
B|------10---10---10---10---10----|
G|--9-9----9----9----9----9----9--|
D|--------------------------------|
A|--------------------------------|
D|--------------------------------|

e|--------------------------------|
B|------7---7---7---7---7---------|
G|--6-6---6---6---6---6---6-------|
D|--------------------------------|
A|--------------------------------|
D|--------------------------------|

e|------5---5---5---5---5---------|
B|--------------------------------|
G|--7-7---7---7---7---7---7-------|
D|--------------------------------|
A|--------------------------------|
D|--------------------------------|

e|--------------------------------|
B|------10---10---------9---9-----|
G|--9-9----9----9---9-9---9---9---|
D|--------------------------------|
A|--------------------------------|
D|--------------------------------|

Intro: A F#m D A E A 2x

    A                     F#m
Sepercik air yang ku nantikan
   D                         A        E
Tapi hanya butir pasir yang ku dapatkan
   A                      F#m
Dimana senyum yang memanjakan
   D                       A       E
Tapi hanya luka hati yang ku temukan

Interlude: A F#m D A E A

     A                  F#m
Teringat saat kita bersama
   D                           A        E
Lalui badai nan kelam kita tetap berjalan
   A                    F#m
Dimanakah engkau kini teman
     D                         A          E
Menghilang ditelan malam tak kunjung datang
 D               A   E
Dimanakah kau berada
 D                A  E
Dimanakah engkau kini

Reff:

 A                   F#m
Ku rindukan arti dirimu kawan
         D                A      E
Saling berbagi indahnya mimpi kita
 A                   F#m
Ku rindukan arti dirimu kawan
        D               A       E
Lalui bersama menembus dingin malam

Interlude: F#m E D A E 2x

e|---------------------------------------------------|
B|--10-10-10-10-10-10-12-12---9-9-9-9-9-9-10-10------|
G|---------------------------------------------------|
D|---------------------------------------------------|
A|---------------------------------------------------|
D|---------------------------------------------------|

e|--7h9-9-9-9-9-9-10-10---9-9-9-9--------------------|
B|----------------------------------12-12---9-9------|
G|---------------------------------------------------|
D|---------------------------------------------------|
A|---------------------------------------------------|
D|---------------------------------------------------|

e|--12-12-12-12-12-12/14-14---12-12-12-12-12-12-9-9--|
B|---------------------------------------------------|
G|---------------------------------------------------|
D|---------------------------------------------------|
A|---------------------------------------------------|
D|---------------------------------------------------|

e|---10-10-10-10-10-10-12-12---9-9-9-9---------------|
B|-------------------------------------12-12-9-9-10--|
G|---------------------------------------------------|
D|---------------------------------------------------|
A|---------------------------------------------------|
D|---------------------------------------------------|

 A                    F#m
Teringat saat ku berjalan
   D                     A         E
Lalui badai nan kelam kita tetap berjalan

Back to Reff 2x
Coda: D

Legend:
h = Hammer on
/ = Slide up to
Suggest correction
Give kudos to tab author, rate the tab!
1 2 3 4 5
comments
print report bad tab
1 comment total.
0 reply
choshech 21 wrote on November 13 2011, 11:02 pm

This is my first post in Ultimate Guitar... I hope you like... Enjoy the tab... ^_^

guest
You may want to rate the tab now too:
select rating
Wanna post a correction for this tab? Suggest correction