Oops, an error
Loading. Please wait.

Kesepian Kita Tab

version 1
version 1

Whole song

Interactive

15,912 views 66 this week
no commentswrite comment
1 2 3 4 5
please rate
add to favorites
launch autoscroll
font size
0
reset
how to read this tab
guitar tuner
Autoscroll
slow
fast
+/-
esc
set tempo
stop
Help us to improve Ultimate-Guitar.com Take our survey!
×
Author
Difficulty
novice
-------------------------------------------------------------------------------
                             Kesepian kita - pas band
-------------------------------------------------------------------------------
Tabbed by: the_db


Tuning: standard


e -17---------14----------12--------17------14---------------|
B ----17---------15----------14---------17-------15--15~-----|
G --------14--------14---------14-----------14------------14-|
D -----------------------------------------------------------|
A -----------------------------------------------------------|
E -----------------------------------------------------------|



e -----------------------------------------|
B -----------------------------------------|
G ------9-----------6/7/6------------6~----|  4x
D ----7---7-----7----------------7---------|
A -9---------5-----------------------------|
E ------------------------------5------5~--|


e-10----10----12----12---10---9---17---12---9---10---12---10---9---10---10----10--12--10---|
B----10----10----10-----------------------------------------------------------10--10----10-|
G------------------------------------------------------------------------------------------|
D------------------------------------------------------------------------------------------|
A------------------------------------------------------------------------------------------|
E------------------------------------------------------------------------------------------|

e -12---10---9--|
B --------------|
G --------------|
D --------------|
A --------------|
E---------------|




A     E     F#m     D
A     E     F#m     D
Bm     C#     D
Bm     C#     D


e -14---12---12---------------------------------------------9---10---14---12---14------|
B---------14-----14---12---10---------------------10---12------------------------------|
G---------------------------------11---9---11---11-------------------------------------|
D--------------------------------------------------------------------------------------|
A--------------------------------------------------------------------------------------|
E--------------------------------------------------------------------------------------|

e-14---17---21---21---19---17---14---14/12---9-------------------------------------------|
B---------------------------------------------------12/10----------10---12---10---12/13--|
G-----------------------------------------------------------11---11----------------------|
D----------------------------------------------------------------------------------------|
A----------------------------------------------------------------------------------------|
E----------------------------------------------------------------------------------------|


e------------------------------------------------------------------------------------------|
B-10---12---10---13---12---10----10------------------------------------------------10---12-|
G----------------------------------11---11---11---9---9----------------------9---11--------|
D------------------------------------------------------11---11---------9---11--------------|
A---------------------------------------------------------------9---12---------------------|
E------------------------------------------------------------------------------------------|

e -9---11/12---9----14~--|
B ----------------12-----|
G -----------------------|
D -----------------------|
A -----------------------|
E -----------------------|



  2x


e -12--------|
B ----12-----|
G--------11--|
D -----------|
A -----------|
E -----------|

  (10x Verse) +
e ----------------------------------|
B ----------------------------------|
G ------9-----------6/7/6-----------|
D ----7---7-----7-------------7~----|
A -9---------5----------------------|
E ------------------------------5~--|


| /  slide up
| \  slide down
| h  hammer-on
| p  pull-off
| ~  vibrato
| +  harmonic
| x  Mute note
===============================================================================
Suggest correction
Give kudos to tab author, rate the tab!
1 2 3 4 5
comments
print report bad tab
guest
You may want to rate the tab now too:
select rating
Wanna post a correction for this tab? Suggest correction