Oops, an error
Loading. Please wait.

53 tab

70 views 6 this week
no commentswrite comment
1 2 3 4 5
3 more votes to show rating
add to favorites
×
Save as Personal and add changes to this tab that will be seen only by you. Learn more ›
×
You can save this tab as Personal to edit and correct it or add notes. All changes will be seen only by you. Learn more »
launch autoscroll
font size
0
reset
how to read this tab
guitar tuner
edit
Autoscroll
slow
fast
+/-
esc
set tempo
stop
-------------------------------------------------------------------------------
                             53 - Pascal Pinon
-------------------------------------------------------------------------------
Tabbed by: danib4884

Tuning: Standard



e|--------0-----------0-----------0-----------0-----------0-----------0-----------0----|
B|--------5-----------5-----------5-----------7-----------7-----------7-----------7----|
G|-----0-----0-----0-----0-----0-----0-----0-----0-----0-----0-----0-----0-----0-----0-|
D|-------------------------------------------------------------------------------------|
A|--3-----------3-----------3-----------5-----------5-----------5-----------5----------|
E|-------------------------------------------------------------------------------------|



e|------0------------0-------------0-------------0------------0-------------0-------------0-------------0----|
B|------12-----------12------------12------------12-----------14------------14------------14------------14---|
G|---0------0-----0------0------0------0------0------0-----0------0------0------0------0------0------0------0|
D|-----------------------------------------------------------------------------------------------------------|
A|10----------10------------10------------10-----------12------------12------------12------------12----------|
E|-----------------------------------------------------------------------------------------------------------|



e|--------0-----------0-----------0-----------0-----------0-----------0-----------0-----------0----|
B|--------8-----------8-----------8-----------7-----------5-----------5-----------5-----------5----|
G|-----0-----0-----0-----0-----0-----0-----0-----0-----0-----0-----0-----0-----0-----0-----0-----0-|
D|-------------------------------------------------------------------------------------------------|
A|--7-----------7-----------7-----------5-----------3-----------3-----------3-----------3----------|
E|-------------------------------------------------------------------------------------------------|



e|--------0-----------0-----------0-----------0-----------0-----------0-----------0-----------0----|
B|--------5-----------5-----------5-----------5-----------5-----------5-----------5-----------5----|
G|-----0-----0-----0-----0-----0-----0-----0-----0-----0-----0-----0-----0-----0-----0-----0-----0-|
D|-------------------------------------------------------------------------------------------------|
A|-------------------------------------------------------------------------------------------------|
E|--3-----------3-----------5-----------5-----------5-----------5-----------5-----------5----------|


e|--------0-----------0-----------0-----------0-----------0-----------0-----------0----|
B|--------5-----------5-----------5-----------7-----------7-----------7-----------7----|
G|-----0-----0-----0-----0-----0-----0-----0-----0-----0-----0-----0-----0-----0-----0-|
D|-------------------------------------------------------------------------------------|
A|--3-----------3-----------3-----------5-----------5-----------5-----------5----------|
E|-------------------------------------------------------------------------------------|

His mother that would've been 53


e|------0------------0-------------0-------------0------------0-------------0-------------0-------------0----|
B|------12-----------12------------12------------12-----------14------------14------------14------------14---|
G|---0------0-----0------0------0------0------0------0-----0------0------0------0------0------0------0------0|
D|-----------------------------------------------------------------------------------------------------------|
A|10----------10------------10------------10-----------12------------12------------12------------12----------|
E|-----------------------------------------------------------------------------------------------------------|

Her misery took her away
What of you?


e|--------0-----------0-----------0-----------0-----------0-----------0-----------0-----------0----|
B|--------8-----------8-----------8-----------7-----------5-----------5-----------5-----------5----|
G|-----0-----0-----0-----0-----0-----0-----0-----0-----0-----0-----0-----0-----0-----0-----0-----0-|
D|-------------------------------------------------------------------------------------------------|
A|--7-----------7-----------7-----------5-----------3-----------3-----------3-----------3----------|
E|-------------------------------------------------------------------------------------------------|

Out the window 
she follows it down,


e|--------0-----------0-----------0-----------0-----------0-----------0-----------0-----------0----|
B|--------5-----------5-----------5-----------5-----------5-----------5-----------5-----------5----|
G|-----0-----0-----0-----0-----0-----0-----0-----0-----0-----0-----0-----0-----0-----0-----0-----0-|
D|-------------------------------------------------------------------------------------------------|
A|-------------------------------------------------------------------------------------------------|
E|--3-----------3-----------5-----------5-----------5-----------5-----------5-----------5----------|

and closed eyes for eternity


e|--------0-----------0-----------0-----------0-----------0-----------0-----------0----|
B|--------5-----------5-----------5-----------7-----------7-----------7-----------7----|
G|-----0-----0-----0-----0-----0-----0-----0-----0-----0-----0-----0-----0-----0-----0-|
D|-------------------------------------------------------------------------------------|
A|--3-----------3-----------3-----------5-----------5-----------5-----------5----------|
E|-------------------------------------------------------------------------------------|

His words of sincerity
silently I wipe the tears


e|------0------------0-------------0-------------0------------0-------------0-------------0-------------0----|
B|------12-----------12------------12------------12-----------14------------14------------14------------14---|
G|---0------0-----0------0------0------0------0------0-----0------0------0------0------0------0------0------0|
D|-----------------------------------------------------------------------------------------------------------|
A|10----------10------------10------------10-----------12------------12------------12------------12----------|
E|-----------------------------------------------------------------------------------------------------------|

that I almost fell 
in the church

e|--------0-----------0-----------0-----------0-----------0-----------0-----------0-----------0----|
B|--------8-----------8-----------8-----------7-----------5-----------5-----------5-----------5----|
G|-----0-----0-----0-----0-----0-----0-----0-----0-----0-----0-----0-----0-----0-----0-----0-----0-|
D|-------------------------------------------------------------------------------------------------|
A|--7-----------7-----------7-----------5-----------3-----------3-----------3-----------3----------|
E|-------------------------------------------------------------------------------------------------|

if I was a prayer 
I'd pray for her

e|--------0-----------0-----------0-----------0-----------0-----------0-----------0-----------0----|
B|--------5-----------5-----------5-----------5-----------5-----------5-----------5-----------5----|
G|-----0-----0-----0-----0-----0-----0-----0-----0-----0-----0-----0-----0-----0-----0-----0-----0-|
D|-------------------------------------------------------------------------------------------------|
A|-------------------------------------------------------------------------------------------------|
E|--3-----------3-----------5-----------5-----------5-----------5-----------5-----------5----------|

and hope that she's found some heaven.




e|--------0-----------0-----------0-----------0-----------0-----------0-----------0-----------0-----| ...
B|--------5-----------5-----------5-----------5-----------5-----------5-----------5-----------5-----| ...
G|-----0-----0-----0-----0-----0-----0-----0-----0-----0-----0-----0-----0-----0-----0-----0-----0--| ...
D|--------------------------------------------------------------------------------------------------| ...
A|--3-----------3-----------------------------------------------------------------------------------| ... 
E|--------------------------3-----------3-----------5-----------5-----------5-----------5-----------| ...

uuuuhh...


e|--------0-----------0-----------0-----------0-----------0-----------0-----------0-----------0-----| ...
B|--------5-----------5-----------5-----------5-----------5-----------5-----------5-----------5-----| ...
G|-----0-----0-----0-----0-----0-----0-----0-----0-----0-----0-----0-----0-----0-----0-----0-----0--| ...
D|--------------------------------------------------------------------------------------------------| ...
A|--3-----------3-----------------------------------------------------------------------------------| ... 
E|--------------------------3-----------3-----------5-----------5-----------5-----------5-----------| ...

uuuuhh...


e|--------0-----------0-----------0-----------0-----------0-----------0-----------0-----------0-----| ...
B|--------5-----------5-----------5-----------5-----------5-----------5-----------5-----------5-----| ...
G|-----0-----0-----0-----0-----0-----0-----0-----0-----0-----0-----0-----0-----0-----0-----0-----0--| ...
D|--------------------------------------------------------------------------------------------------| ...
A|--3-----------3-----------------------------------------------------------------------------------| ... 
E|--------------------------3-----------3-----------5-----------5-----------5-----------5-----------| ...

uuuuhh...




e|--------0-----------0-----------0-----------0-----------0-----------0-----------0----|
B|--------5-----------5-----------5-----------7-----------7-----------7-----------7----|
G|-----0-----0-----0-----0-----0-----0-----0-----0-----0-----0-----0-----0-----0-----0-|
D|-------------------------------------------------------------------------------------|
A|--3-----------3-----------3-----------5-----------5-----------5-----------5----------|
E|-------------------------------------------------------------------------------------|

hes lust to infinity
cured them of the insanity

e|------0------------0-------------0-------------0------------0-------------0-------------0-------------0----|
B|------12-----------12------------12------------12-----------14------------14------------14------------14---|
G|---0------0-----0------0------0------0------0------0-----0------0------0------0------0------0------0------0|
D|-----------------------------------------------------------------------------------------------------------|
A|10----------10------------10------------10-----------12------------12------------12------------12----------|
E|-----------------------------------------------------------------------------------------------------------|

but left a whole in him 
to grieve

e|--------0-----------0-----------0-----------0-----------0-----------0-----------0-----------0----|
B|--------8-----------8-----------8-----------7-----------5-----------5-----------5-----------5----|
G|-----0-----0-----0-----0-----0-----0-----0-----0-----0-----0-----0-----0-----0-----0-----0-----0-|
D|-------------------------------------------------------------------------------------------------|
A|--7-----------7-----------7-----------5-----------3-----------3-----------3-----------3----------|
E|-------------------------------------------------------------------------------------------------|

in the land of the living
left in the tears

e|--------0-----------0-----------0-----------0-----------0-----------0-----------0-----------0----|
B|--------5-----------5-----------5-----------5-----------5-----------5-----------5-----------5----|
G|-----0-----0-----0-----0-----0-----0-----0-----0-----0-----0-----0-----0-----0-----0-----0-----0-|
D|-------------------------------------------------------------------------------------------------|
A|-------------------------------------------------------------------------------------------------|
E|--3-----------3-----------5-----------5-----------5-----------5-----------5-----------5----------|

and braced the things that will never be...



e|--------0-----------0-----------0-----------0-----------0-----------0-----------0-----------0-----| ...
B|--------5-----------5-----------5-----------5-----------5-----------5-----------5-----------5-----| ...
G|-----0-----0-----0-----0-----0-----0-----0-----0-----0-----0-----0-----0-----0-----0-----0-----0--| ...
D|--------------------------------------------------------------------------------------------------| ...
A|--3-----------3-----------------------------------------------------------------------------------| ... 
E|--------------------------3-----------3-----------5-----------5-----------5-----------5-----------| ...
uuuuhh...


e|--------0-----------0-----------0-----------0-----------0-----------0-----------0-----------0-----| ...
B|--------5-----------5-----------5-----------5-----------5-----------5-----------5-----------5-----| ...
G|-----0-----0-----0-----0-----0-----0-----0-----0-----0-----0-----0-----0-----0-----0-----0-----0--| ...
D|--------------------------------------------------------------------------------------------------| ...
A|--3-----------3-----------------------------------------------------------------------------------| ... 
E|--------------------------3-----------3-----------5-----------5-----------5-----------5-----------| ...

uuuuhh...
 
e|------0-----------0------------0-------------0-------------0-------------0-------------0-------------0-----|
B|------5-----------5------------12------------12------------14------------14------------14------------14----|
G|---0-----0-----0-----0------0------0------0------0------0------0------0------0------0------0------0------0-|
D|-----------------------------------------------------------------------------------------------------------|
A|3-----------3-----------10------------10------------12------------12------------12------------12-----------|
E|-----------------------------------------------------------------------------------------------------------|

uuuuhh...

e|------0------------0-------------0-------------0-------------0------------0-------------0-------------0----|
B|------15-----------15------------17------------17------------19-----------19------------19------------19---|
G|---0-----0------0------0------0------0------0------0------0------0-----0------0------0------0------0------0|
D|-----------------------------------------------------------------------------------------------------------|
A|14----------14------------15------------15------------17-----------17------------17------------17----------|
E|-----------------------------------------------------------------------------------------------------------|
 
When there are dots, she keeps playing the last notes whiles music it's slowly fadding away.
Suggest correction
Creating personal tab
Creating personal tab
You can edit any tab online and save it as your Personal.

You can edit, replace or remove any tab part or add personal notes – all changes will be seen only by you.

Personal tabs can be accessed anytime from any device, even offline.
Learn more »
Give kudos to tab author, rate the tab!
1 2 3 4 5
comments
print report bad tab
guest
You may want to rate the tab now too:
select rating
Wanna post a correction for this tab? Suggest correction