Oops, an error
Loading. Please wait.

Ms Pascow chords

by Pascow
52 views 1 this week
no commentswrite comment
1 2 3 4 5
3 more votes to show rating
add to favorites
×
Save as Personal and add changes to this tab that will be seen only by you. Learn more ›
×
You can save this tab as Personal to edit and correct it or add notes. All changes will be seen only by you. Learn more »
launch autoscroll
font size
0
reset
transpose
0
reset
display chords
guitar tuner
edit
Autoscroll
slow
fast
+/-
esc
set tempo
stop
Strumming
There is no strumming pattern for this song yet. and get +5 IQ
[Intro]
e|-----------------------------------------------------|
B|-----------------------------------------------------|
G|-----------------------------------------------------|
D|---------------------------------------------7-7-7---|
A|-9-9-9-9-9-9-9-9-9-9-9-9-9-9-9-9-4-4-4-5-5-5-5-5-5-7-|
E|-7-7-7-7-7-7-7-7-7-7-7-7-7-7-7-7-2-2-2-3-3-3-------5-|

[Strophe 1]
B                             D
Und die Guten haben gewonnen?
F#               G
Wie darf ich das verstehen?
B                             D     F# G F# G A
Und überhaupt, was fangen wir damit an?
B                              D
Nur einmal Crass und dann zurück
F#     G
METAMORPHOSE
B                        
Mit offenen Armen in die 
D        F#       G
Stuckrad-Barre Katastrophe...

[Chorus]
  D            A     B           F#
Dann auf, alte Lady, alle Leinen los
    D                  A              F#     G
und bring uns noch mal an die Einheitsfront.
   D                A            B               F#
Es gibt hier keinen Captain, wir haben nur einen Grund:
    D          A              F#
Die M/S Pascow immer noch auf Kurs!Immer noch!

                                                        (x2)
e|-----------------------------------------------------|
B|-----------------------------------------------------|
G|-----------------------------------------------------|
D|---------------------------------------------7-7-7---|
A|-9-9-9-9-9-9-9-9-9-9-9-9-9-9-9-9-4-4-4-5-5-5-5-5-5-7-|
E|-7-7-7-7-7-7-7-7-7-7-7-7-7-7-7-7-2-2-2-3-3-3-------5-| 

[Strophe 2]
B                             D
Das ist dein Loop mein Freund,
F#                  G
den kannste nicht anhalten.
B                               D     F#   G
Die Geister, die du riefst ankernnoch hier.
B                               D
Ersatzkanister, Taschenlampe...
F#              G
Alles gibt dann Sinn,
B                           D
Was bleibt zu sagen ausser:
F#                   G    
Ich will da nie mehr hin...

[Chorus]
  D            A     B           F#
Dann auf, alte Lady, alle Leinen los
    D                  A              F#    G F# G A 
und bring uns noch mal an die Einheitsfront.
   D                A            B               F#
Es gibt hier keinen Captain, wir haben nur einen Grund:
    D          A              F#
Die M/S Pascow immer noch auf Kurs!Immer noch!

[outro]

                                                        (x2)
e|-----------------------------------------------------|
B|-----------------------------------------------------|
G|-----------------------------------------------------|
D|---------------------------------------------7-7-7---|
A|-9-9-9-9-9-9-9-9-9-9-9-9-9-9-9-9-4-4-4-5-5-5-5-5-5-7-|
E|-7-7-7-7-7-7-7-7-7-7-7-7-7-7-7-7-2-2-2-3-3-3-------5-| 

            
            
Suggest correction
Creating personal tab
Creating personal tab
You can edit any tab online and save it as your Personal.

You can edit, replace or remove any tab part or add personal notes – all changes will be seen only by you.

Personal tabs can be accessed anytime from any device, even offline.
Learn more »
Give kudos to tab author, rate the tab!
1 2 3 4 5
comments
print report bad tab
guest
You may want to rate the tab now too:
select rating
Wanna post a correction for this tab? Suggest correction