Oops, an error
Loading. Please wait.

Beautiful Birds intro tab

version 1
version 1

Intro

Whole song

4,555 views 24 this week
2 commentsread comments
1 2 3 4 5
x 7
add to favorites
×
Save as Personal and add changes to this tab that will be seen only by you. Learn more ›
×
You can save this tab as Personal to edit and correct it or add notes. All changes will be seen only by you. Learn more »
launch autoscroll
font size
0
reset
how to read this tab
guitar tuner
edit
Autoscroll
slow
fast
+/-
esc
set tempo
stop
-------------------------------------------------------------------------------
                             BEAUTIFUL BIRDS Passenger
-------------------------------------------------------------------------------
***************************************************
***************************************************                                    
THIS TAB IS THE ACCURATE THE ONE EXISTING IS WRONG!
***************************************************
***************************************************
TABED BY: TheLoneTravelerMusic
Hello people of UTG here is Beautiful Birds Tab.

Tuning: Standard
Capo: 7

e|-3-2---0-------------------3-2---0------------3-2--------------------------|
B|-----3---3-0-------0-----------3---3-0----0-3------------------------------|
G|-------------2-0-2---2-0---------------2-----------------------------------|
D|---------------------------------------------------------------------------|
A|---------------------------------------------------------------------------|
E|---------------------------------------------------------------------------|

e|-3-2---0-------------------------------------------------------------------|
B|-----3---3-0-------0---------------------3-1---0h1-1-0---------------------|
G|-------------2-0-2---2-0--------0------------------------------------------|
D|----------------------------0h2---2-0--------------------------------------|
A|--------------------------3-----------3------------------------------------|
E|---------------------------------------------------------------------------|

************************************

| /   slide up
| \   slide down
| h   hammer-on
| p   pull-off
| ~   vibrato
| +   harmonic
| x   Mute note
| b   Bend
| pb  Pre-bend
| br  Bend release
| pbr Pre-bend release
| brb Bend release bend

************************************

            
            
Suggest correction
Creating personal tab
Creating personal tab
You can edit any tab online and save it as your Personal.

You can edit, replace or remove any tab part or add personal notes – all changes will be seen only by you.

Personal tabs can be accessed anytime from any device, even offline.
Learn more »
comments
print report bad tab
2 comments total.
0 reply
xtreamandre 10 Sep 04, 2015 05:54 AM

didn't like this contribution

0 reply
jakobjump 20 Sep 13, 2015 02:33 AM, edited at 06:34 am

Sound decently, needs a bit more depth and bass notes though

guest
You may want to rate the tab now too:
select rating
Wanna post a correction for this tab? Suggest correction