Oops, an error
Loading. Please wait.

Beautiful Birds Acoustic tab

version 1
version 1

Whole song

9,850 views 93 this week
1 commentread comment
1 2 3 4 5
x 25
add to favorites
×
Save as Personal and add changes to this tab that will be seen only by you. Learn more ›
×
You can save this tab as Personal to edit and correct it or add notes. All changes will be seen only by you. Learn more »
launch autoscroll
font size
0
reset
how to read this tab
guitar tuner
edit
Autoscroll
slow
fast
+/-
esc
set tempo
stop
Artist: Passenger
Capo: 7th fret
Tuning: standard

 **note: the C* chord is a C chord moved two frets**  

[Intro]

e|-3-2---0-------------------------3-2--0-------------3-2----|
B|-----3-------3-----------------------3------3-----3--------|
G|-0---------0---2---2-2-4-----2-0----------0---2-0----------|
D|-----------------0---------0-------------------------------|
A|---------3------------------------------3------------------|
E|-0-----------------------3---------------------------------|

e|-3-2---0---------------------------------------------------|
B|-----3-------3-------------------------------0-3---1-1p0---|
G|-0---------0---2---2-2-4-----2-0-------0---0-----0---------|
D|-----------------0---------0-------0h2---2-----------------|
A|---------3-----------------------3-------------------------|
E|-0-----------------------3---------------------------------|


[Verse 1]
(you remember when we were...)

   Em      C       C*      G       Em      C       C*     
e|-----------------------------------------------------------|
B|-----0-------1-------3-------0-------0-------1-------3---3-|
G|---0---0---0---0---0---0---0---0---0---0---0---0---0---0---|
D|-----------------------------------------------------------|
A|-2-------3-------5---------------2-------3-------5---------|
E|-------------------------3---------------------------------|

   Em      C       C*      G               D
e|-----------------------------------------------3-2---------|
B|-----0-------1-------3-------0---1-1-1-0-----3-------------|
G|---0---0---0---0---0---0---0---0-----------2---------------|
D|-----------------------------------------0-----------------|
A|-2-------3-------5-----------------------------------------|
E|-------------------------3---------------------------------|


[Verse 2] 
(you said you loved...)

e|-3-2---0-------------------------3-2--0-------------3-2----|
B|-----3-------3-----------------------3------3-----3--------|
G|-0---------0---2---2-2-4-----2-0----------0---2-0----------|
D|-----------------0---------0-------------------------------|
A|---------3------------------------------3------------------|
E|-0-----------------------3---------------------------------|

e|-3-2---0---------------------------------------------------|
B|-----3-------3-------------------------------0-3---1-1p0---|
G|-0---------0---2---2-2-4-----2-0-------0---0-----0---------|
D|-----------------0---------0-------0h2---2-----------------|
A|---------3-----------------------3-------------------------|
E|-0-----------------------3---------------------------------|


[Bridge]

e|-3-2---0-------------------------3-2--0-------------3-2----|
B|-----3-------3-----------------------3------3-----3--------|
G|-0---------0---2---2-2-4-----2-0----------0---2-0----------|
D|-----------------0---------0-------------------------------|
A|---------3------------------------------3------------------|
E|-0-----------------------3---------------------------------|

e|-7-5-3-0---3-2-----------0---------------------------------|
B|-----------------3-0---3-----3---0-0--0h1-0----------------|
G|-0-----------------------------2---------------------------|
D|-----------------------------------------------------------|
A|-----------------------------------------------------------|
E|-0---------------------------------------------------------|


[Verse 3] 
(remember when we were...)

   Em      C       C*      G       Em      C       D      
e|-------------------------------------------------------3-2-|
B|-----0-------1-------3-------0-------0-------1-------3-----|
G|---0---0---0---0---0---0---0---0---0---0---0---0---2-------|
D|-------------------------------------------------0---------|
A|-2-------3-------5---------------2-------3-----------------|
E|-------------------------3---------------------------------|

   Em      C       C*      G               D  
e|-------------------------------------------------3-2-------|
B|-----0-------1-------3-------0---1-1-1-0-----0h3-----------|
G|---0---0---0---0---0---0---0---0-----------2---------------|
D|-----------------------------------------0-----------------|
A|-2-------3-------5-----------------------------------------|
E|-------------------------3---------------------------------|


[Verse 4] 
(but one day you asked...)

e|-3-3-3-3-2-2h3---------------------2-2-3-2-2---------------|
B|---------------3-3-----0-------1p0-------------------------|
G|---------------------0---0---0-----------------------------|
D|-----------------------------------------------------------|
A|-------------------2-------3-------------------------------|
E|-----------------------------------------------------------|

e|-3-2---0-----------------------------------------3-2-------|
B|-----3-------3-----------------0-1-1-1p0-----0h3-----------|
G|-----------0---2---2-2-4-----2-------------2---------------|
D|-----------------0---------0-------------0-----------------|
A|---------3-------------------------------------------------|
E|-------------------------3---------------------------------|


[Verse 5] 
(to build a nest...)

e|-----------------------------------------3-2----0----------|
B|-1---1--1---1--0-0-0---0-0-0h1-0-----0h3------3------------|
G|---2------2----------2-------------2-----------------------|
D|---------------------------------0-------------------------|
A|-----------------------------------------------------------|
E|-----------------------------------------------------------|


e|-----------------------------------------3-2---------------|
B|-1---1--1---1--0-0-0---0-0-0h1-0-----0h3-------------------|
G|---2------2----------2-------------2-----------------------|
D|---------------------------------0-------------------------|
A|-----------------------------------------------------------|
E|-----------------------------------------------------------|


[Outro]

e|-7---7---7-5-3---3---0-3-2---3-2----x----------------------|
B|------------------------------------x----------------------|
G|-0-0-0-0-------0---0-----0-0-----0--x----------------------|
D|------------------------------------x----------------------|
A|------------------------------------x----------------------|
E|-0----------------------------------x----------------------|

e|-3-2---0-------------------------------------------------3-|
B|-----3-------3------------------------------------------0--|
G|-0---------0---2---2-2-4-----2-0-------0-------0-1-----0---|
D|-----------------0---------0-------0h2---2---0--------0----|
A|---------3-----------------------3---------3---------------|
E|-0-----------------------3---------------------------------|



************************************

| x  Dead note
| h  Hammer-on
| p  Pull-off

************************************
Suggest correction
Creating personal tab
Creating personal tab
You can edit any tab online and save it as your Personal.

You can edit, replace or remove any tab part or add personal notes – all changes will be seen only by you.

Personal tabs can be accessed anytime from any device, even offline.
Learn more »
comments
print report bad tab
1 comment total.
0 reply
neilgiliomee 10 May 30, 2017 03:35 PM

Hey man, great tab! I just couldn't help noticing that there is a note short at the instrumental intro at the beginning. Furtheron, love it!

guest
You may want to rate the tab now too:
select rating
Wanna post a correction for this tab? Suggest correction