Oops, an error
Loading. Please wait.

Circles tab

version 1
version 1

Whole song

Interactive

18,933 views 12 this week
4 commentsread comments
1 2 3 4 5
x 7
add to favorites
×
Save as Personal and add changes to this tab that will be seen only by you. Learn more ›
×
You can save this tab as Personal to edit and correct it or add notes. All changes will be seen only by you. Learn more »
launch autoscroll
font size
0
reset
how to read this tab
guitar tuner
edit
Autoscroll
slow
fast
+/-
esc
set tempo
stop
Capo 7

       Am            G             Am            G              Am
e|----------------------------------------------------------------------------|
B|----1------------0h1p0----------1------------0--3p1p0h1-----1---------------|
G|--------2---2----------0---0--------2---2-----------------------2---2-------|
D|----2-----2------0-------0------2-----2------0--0-----------2-----2---------|
A|--0---0-----------------------0---0-----------------------0---0-------------|
E|---------------3----------------------------3-------------------------------|

        G              Em               D
e|-----------------------------------0h2p0------------------------------------|
B|----0h1p0-----------0--------------------3---3------------------------------|
G|----------0---0---------0---0------2-------2--------------------------------|
D|----0-------0-------2-----2------0------------------------------------------| (x2)
A|----------------------------------------------------------------------------|
E|--3---------------0---0-----------------------------------------------------|


************************************

| h  Hammer-on
| p  Pull-off

************************************

            
            
Suggest correction
Creating personal tab
Creating personal tab
You can edit any tab online and save it as your Personal.

You can edit, replace or remove any tab part or add personal notes – all changes will be seen only by you.

Personal tabs can be accessed anytime from any device, even offline.
Learn more »
comments
print report bad tab
4 comments total. Showing first comments.
+2 reply
MattH86 10 Sep 24, 2013 11:39 AM

Capo 9 and the D is hammer on 2 not 1, but otherwise alright :P

0 reply
nathaniellemke 10 Oct 28, 2013 03:36 PM

With the album version from All the Little Lights its capo 9 and on the high e string in the D chord you hammer and pull off of the 2nd fret. Other than than its awesome! Thanks for the tab!

+1 reply
Mikk615b 93 Dec 03, 2013 03:30 AM

You are right guys, I don't know why I typed 1 instead of 2

guest
You may want to rate the tab now too:
select rating
Wanna post a correction for this tab? Suggest correction