Oops, an error
Loading. Please wait.

David chords

version 2
version 2

Whole song

1,160 views 6 this week
no commentswrite comment
1 2 3 4 5
x 4
add to favorites
×
Save as Personal and add changes to this tab that will be seen only by you. Learn more ›
×
You can save this tab as Personal to edit and correct it or add notes. All changes will be seen only by you. Learn more »
launch autoscroll
font size
0
reset
transpose
0
reset
simplify chords
display chords
guitar tuner
edit
Autoscroll
slow
fast
+/-
esc
set tempo
stop
Strumming
There is no strumming pattern for this song yet. and get +5 IQ
Passenger - David - Whispers II


These tabs were created by ear so they might not be correct. https://www.youtube.com/watch?v=3DGIRJcTO88

Standard tuning, Capo 6th Fret

Mike uses his standard pattern in the verse and chorus

  (Am7 and C)              (Gsus4 and Fmaj7)
e|-------------------|    |--------------------|
B|-----x-------------|    |-----x--------------|
G|----------x-----x--|    |-----------x-----x--|
D|-----x-------x-----| or |-----x--------x-----|  
A|--x-----x----------|    |--------------------|
E|-------------------|    |--x-----x-----------|

INTRO (Starts at 1:21)
         Am7                       Gsus4                    Fmaj7                      Gsus4
e|-------------------|    |--------------------|    |--------------------|    |-----3-0------------|
B|-----1----------1--|    |-----1-----------1--|    |-----1-----------1--|    |-----1---1~~~~~-----|
G|----------0--------|    |-----------0--------|    |-----------2--------|    |--------------------|
D|-----2-------2-----|    |-----0--------0-----|    |-----3--------3-----|    |-----0---2----------|
A|--0-----0----------|    |--------------------|    |--------------------|    |--------------------|
E|-------------------|    |--3-----3-----------|    |--1-----1-----------|    |--3-----(3)---------|
         Am7                       Gsus4                    Fmaj7                      Gsus4
e|-------------------|    |--------------------|    |--------------------|    |--------------------|
B|-----1----------1--|    |-----1-----------1--|    |-----1-----------1--|    |-----1~~~~~---------|
G|----------0--------|    |-----------0--------|    |-----------2--------|    |--------0~~~~~------|
D|-----2-------2-----|    |-----0--------0-----|    |-----3--------3-----|    |----(0)----0~~~~~---|
A|--0-----0----------|    |--------------------|    |--------------------|    |--------------------|
E|-------------------|    |--3-----3-----------|    |--1-----1-----------|    |--3-----------------|
         Am7                       Gsus4                    Fmaj7                      Gsus4
e|--3-5-3~~~~~-------|    |--------------------|    |--------------------|    |-----3-0------------|
B|-------------------|    |-----1-----------1--|    |-----1-----------1--|    |-----1---1~~~~~-----|
G|-------------------|    |-----------0--------|    |-----------2--------|    |--------------------|
D|-----(2)-----------|    |-----0--------0-----|    |-----3--------3-----|    |-----0---2----------|
A|--0----------------|    |--------------------|    |--------------------|    |--------------------|
E|-------------------|    |--3-----3-----------|    |--1-----1-----------|    |--3-----(3)---------|
         Am7                       Gsus4                    Fmaj7                     
e|-------------------|    |--------------------|    |--------------------|    
B|-----1----------1--|    |-----1-----------1--|    |--1~~~~~------------|    
G|----------0--------|    |-----------0--------|    |--2~~~~~------------|    
D|-----2-------2-----|    |-----0--------0-----|    |--3~~~~~------------|    
A|--0-----0----------|    |--------------------|    |--------------------|    
E|-------------------|    |--3-----3-----------|    |--1~~~~~------------|    

VERSE (Starts at 1:37)

  Am7               Gsus4     Fmaj7   Gsus4
I met him outside a hostel door
        Am7           Gsus4       Fmaj7          Gsus4
He said I’ll tell you mine if you tell me yours
   Am7                 Gsus4      Fmaj7        Gsus4
I know you think it’s shifty for a man in his fifties to be 
  Am7         Gsus4     Fmaj7
sleeping in a hostel dorm
       Am7          Gsus4     Fmaj7   Gsus4
But I used to be a welder by trade
         Am7        Gsus4           Fmaj7      Gsus4
Used to work by the water where the ships get made
        Am7          Gsus4
But no shipyard will take me now
   Fmaj7         Gsus4
My hands are too shaky now
      Am7         Gsus4             Fmaj7
I’ve spend all my money before I get paid


CHORUS (Starts at 2:10)
           Gsus4                         C
And I said David, don’t you think it’s strange
      Fmaj7     
While you were in your dark room
         C
How the world went and changed
 Gsus4                             Am7
Looking in your eyes, I think you know
      Fmaj7             Gsus4                 Am7
That David, we lost you, lost you a long time ago
      Gsus4   Fmaj7   Gsus4   
Ooh,  ooh,    oh,     oh,…
 Am7  Gsus4   Fmaj7   Gsus4   
Ooh,  ooh,    oh,     oh,…
 Am7  Gsus4   Fmaj7   Gsus4   
Ooh,  ooh,    oh,     oh,…
 Am7  Gsus4   Fmaj7    
Ooh,  ooh,    oh,    


VERSE 2 (Starts at 2:41)
              Am7             Gsus4  Fmaj7
He leans his head against the hostel wall
Gsus4          Am7                 Gsus4
Said I have an ex-wife that doesn’t hear me
     Fmaj7            Gsus4
And a kid that doesn’t call
           Am7             Gsus4
And every month I’m caught short
         Fmaj7         Gsus4
With my fucking child support 
         Am7                 Gsus4           Fmaj7
And the court says that I’m reckless and irresponsible
               Am7             Gsus4
‘Cause it was never part of the plan
        Fmaj7
To be a middle aged man 
Gsus4 Am7           Gsus4             Fmaj7    Gsus4
To be sat outside a hostel, shaking strangers’ hands
          Am7           Gsus4
But I’ve drunk away my wealth
           Fmaj7         Gsus4
And I’m a picture of bad health
           Am7         Gsus4       Fmaj7
And I’m a shadow of a shadow of a former self


CHORUS (Starts at 3:15)
           Gsus4                         C
And I said David, don’t you think it’s strange
      Fmaj7     
While you were walking and 
         C
How the world went and changed
 Gsus4                             Am7
I hear it in your voice, I think you know
      Fmaj7             Gsus4                 Am7
That David, we lost you, lost you a long time ago
      Gsus4   Fmaj7   Gsus4   
Ooh,  ooh,    oh,     oh,…
 Am7  Gsus4   Fmaj7   Gsus4   
Ooh,  ooh,    oh,     oh,…
 Am7  Gsus4   Fmaj7   Gsus4   
Ooh,  ooh,    oh,     oh,…
 Am7  Gsus4   Fmaj7   Gsus4   
Ooh,  ooh,    oh,     oh,…
 Am7  Gsus4   Fmaj7   Gsus4   
Ooh,  ooh,    oh,     oh,…
 Am7  Gsus4   Fmaj7   Gsus4   
Ooh,  ooh,    oh,     oh,…
 Am7  Gsus4   Fmaj7   Gsus4   
Ooh,  ooh,    oh,     oh,…
 Am7  Gsus4   Fmaj7    
Ooh,  ooh,    oh,    


CHORUS (Starts at 4:03, this time you only play the chords once)
          Gsus4                         C
And I said David, don’t you think it’s strange
Fmaj7     
While you were sleeping
         C
How the world went and changed
 Gsus4                             Am7
Looking in your eyes, I think you know
      Fmaj7             Gsus4                       Am7
That David, we lost you, lost you a long time ago




            
            
Suggest correction
Creating personal tab
Creating personal tab
You can edit any tab online and save it as your Personal.

You can edit, replace or remove any tab part or add personal notes – all changes will be seen only by you.

Personal tabs can be accessed anytime from any device, even offline.
Learn more »
comments
print report bad tab
guest
You may want to rate the tab now too:
select rating
Wanna post a correction for this tab? Suggest correction