Oops, an error
Loading. Please wait.

Fools Gold tab

version 2
version 2

Whole song

Interactive

6,280 views 54 this week
2 commentsread comments
1 2 3 4 5
x 13
add to favorites
×
Save as Personal and add changes to this tab that will be seen only by you. Learn more ›
×
You can save this tab as Personal to edit and correct it or add notes. All changes will be seen only by you. Learn more »
launch autoscroll
font size
0
reset
how to read this tab
guitar tuner
edit
Autoscroll
slow
fast
+/-
esc
set tempo
stop
----------------------------------------------------------------- 
                   Fool's Gold - Passenger
----------------------------------------------------------------- 

Tuning: EADGBe
Capo: 2

Tabbed from video: https://www.youtube.com/watch?v=88yaczyz-Ro

Intro:

e|-----2p0------------------------------------------------|
B|---------3---0h3-------3---3-3s5-------0---2---------2--|
G|---2---------------0---------------0-------------0------|
D|-0---------0-----0-------0-------0-------0---2-----2----|
A|-------------------------------------------0---0--------|
E|-------------3-------3-------0-------0------------------|

e|-----2p0---------------------7---------5s-0-------------|
B|---------3---0h3-------3-----0---0-------------------2--|
G|---2---------------0-------0-0-------0-----------0------|
D|-0---------0-----0-------0-----0------------2------2----|
A|------------------------------------------0----0--------|
E|-------------3-------3-------0-----0--------------------|

e|-2------------------------------------------------------|
B|-----3-------0h3-------3---3-3s5-------0---2---------2--|
G|---------4---------0---------------0-------------0------|
D|---4-------4-----0-------0-------0-------0---2-----2----|
A|-2-----2-----------------------------------0---0--------|
E|-------------3-------3-------0-------0------------------|

Verse 1:

  Hey, can't you show me something I've not seen before?

e|---------------------------------2------------------------|
B|-----0-------0-----2-------2---------3-----0-----------0--|
G|---------0-------------0-------2---------2-----0---0------|
D|---2-------2-----2-------2---0-----0---0-----0-------0----|
A|---------------0-----0------------------------------------|
E|-0-----0-----------------------------------3-----2--------|

 Magic tricks and pirate ships - they just don't work no more

e|---------------------------------2------------------------|
B|-----0-------0-----2-------2---------3-----0-----------0--|
G|---------0-------------0-------2---------2-----0---0------|
D|---2-------2-----2-------2---0-----0---0-----0-------0----|
A|---------------0-----0------------------------------------|
E|-0-----0-----------------------------------3-----2--------|

  I've given up on treasure chests that wash upon the shore -

e|---------------------------------2------------------------|
B|-----0-------0-----2-------2---------3-----0-----------0--|
G|---------0-------------0-------2---------2-----0---0------|
D|---2-------2-----2-------2---0-----0---0-----0-------0----|
A|---------------0-----0------------------------------------|
E|-0-----0-----------------------------------3-----2--------|

 'cause fool's gold never seems to keep its shine...

e|----------------------------------------------------------|
B|-----0-------0-----0-------0-----2-------0h2---2-------0--|
G|---------0-------------0-------------0-------------0------|
D|---2-------2-----2-------2-----2-------2-----2-------2----|
A|-----------------------------0-----0-----0-------0--------|
E|-0-----0-------0-----0------------------------------------|

Verse 2:

  Hey, can't you give me something I can hold in my hands - 

e|---------------------------------2------------------------|
B|-----0-------0-----2-------2---------3-----0-----------0--|
G|---------0-------------0-------2---------2-----0---0------|
D|---2-------2-----2-------2---0-----0---0-----0-------0----|
A|---------------0-----0------------------------------------|
E|-0-----0-----------------------------------3-----2--------|

  I'm sick of gold rush promises and empty suitcase plans  

e|---------------------------------2------------------------|
B|-----0-------0-----2-------2---------3-----0-----------0--|
G|---------0-------------0-------2---------2-----0---0------|
D|---2-------2-----2-------2---0-----0---0-----0-------0----|
A|---------------0-----0------------------------------------|
E|-0-----0-----------------------------------3-----2--------|

  I won't go back to treasure maps and digging in the sand - 

e|---------------------------------2------------------------|
B|-----0-------0-----2-------2---------3-----0-----------0--|
G|---------0-------------0-------2---------2-----0---0------|
D|---2-------2-----2-------2---0-----0---0-----0-------0----|
A|---------------0-----0------------------------------------|
E|-0-----0-----------------------------------3-----2--------|

  For I always seem to lose whatever I find...

e|----------------------------------------------------------|
B|-----0-------0-----0-------0-----2-------0h2---2-------0--|
G|---------0-------------0-------------0-------------0------|
D|---2-------2-----2-------2-----2-------2-----2-------2----|
A|-----------------------------0-----0-----0-------0--------|
E|-0-----0-------0-----0------------------------------------|

  Yeah, I always seem to leave it all behind...

e|----------------------------------------------------------|
B|-----0-------0-----0-------0-----2-------0h2---2-------0--|
G|---------0-------------0-------------0-------------0------|
D|---2-------2-----2-------2-----2-------2-----2-------2----|
A|-----------------------------0-----0-----0-------0--------|
E|-0-----0-------0-----0------------------------------------|

Chorus:

  Hey...                       give me golden afternoons in

e|-----2----------------------------------------------------|
B|---------3-----0-----------0-----0-------0-----2-------2--|
G|---2---------2-----0---0-------------0-------------0------|
D|-0-----0---0-----0-------0-----2-------2-----2-------2----|
A|-------------------------------------------0-----0--------|
E|---------------3-----2-------0-----0----------------------|

  May...                      give me silver moons that light my 

e|-----2----------------------------------------------------|
B|---------3-----0-----------0-----0-------0-----2-------2--|
G|---2---------2-----0---0-------------0-------------0------|
D|-0-----0---0-----0-------0-----2-------2-----2-------2----|
A|-------------------------------------------0-----0--------|
E|---------------3-----2-------0-----0----------------------|

  way...                       and I won't ask for fool's gold any..
e|----------------------------------------------------------|
B|-3-------3-----0-----------0-----0-------0-----2-------2--|
G|-----4-------4-----0---0-------------0-------------0------|
D|---4-------4-----0-------0-----2-------2-----2-------2----|
A|-2-----2-----------------------------------0-----0--------|
E|---------------3-----2-------0-----0----------------------|

Instrumental (same as intro):

..more

e|-----2p0------------------------------------------------|
B|---------3---0h3-------3---3-3s5-------0---2---------2--|
G|---2---------------0---------------0-------------0------|
D|-0---------0-----0-------0-------0-------0---2-----2----|
A|-------------------------------------------0---0--------|
E|-------------3-------3-------0-------0------------------|

e|-----2p0---------------------7---------5s-0-------------|
B|---------3---0h3-------3-----0---0-------------------2--|
G|---2---------------0-------0-0-------0-----------0------|
D|-0---------0-----0-------0-----0------------2------2----|
A|------------------------------------------0----0--------|
E|-------------3-------3-------0-----0--------------------|

e|-2------------------------------------------------------|
B|-----3-------0h3-------3---3-3s5-------0---2---------2--|
G|---------4---------0---------------0-------------0------|
D|---4-------4-----0-------0-------0-------0---2-----2----|
A|-2-----2-----------------------------------0---0--------|
E|-------------3-------3-------0-------0------------------|

Verse 3:

  Hey, can't you make me feel like I haven't felt for years - 

e|---------------------------------2------------------------|
B|-----0-------0-----2-------2---------3-----0-----------0--|
G|---------0-------------0-------2---------2-----0---0------|
D|---2-------2-----2-------2---0-----0---0-----0-------0----|
A|---------------0-----0------------------------------------|
E|-0-----0-----------------------------------3-----2--------|

let me laugh like I did when I was a kid, till I burst into tears

e|---------------------------------2------------------------|
B|-----0-------0-----2-------2---------3-----0-----------0--|
G|---------0-------------0-------2---------2-----0---0------|
D|---2-------2-----2-------2---0-----0---0-----0-------0----|
A|---------------0-----0------------------------------------|
E|-0-----0-----------------------------------3-----2--------|

let me count the diamond stars and drink the water crystal clear -

e|---------------------------------2------------------------|
B|-----0-------0-----2-------2---------3-----0-----------0--|
G|---------0-------------0-------2---------2-----0---0------|
D|---2-------2-----2-------2---0-----0---0-----0-------0----|
A|---------------0-----0------------------------------------|
E|-0-----0-----------------------------------3-----2--------|

  and I'll be richer than any man who lives with fear... singing

e|----------------------------------------------------------|
B|-----0-------0-----0-------0-----2-------0h2---2-------0--|
G|---------0-------------0-------------0-------------0------|
D|---2-------2-----2-------2-----2-------2-----2-------2----|
A|-----------------------------0-----0-----0-------0--------|
E|-0-----0-------0-----0------------------------------------|

Chorus:

  Hey...                       give me golden afternoons in 

e|-----2----------------------------------------------------|
B|---------3-----0-----------0-----0-------0-----2-------2--|
G|---2---------2-----0---0-------------0-------------0------|
D|-0-----0---0-----0-------0-----2-------2-----2-------2----|
A|-------------------------------------------0-----0--------|
E|---------------3-----2-------0-----0----------------------|

  May...                      give me silver moons that light my 

e|-----2----------------------------------------------------|
B|---------3-----0-----------0-----0-------0-----2-------2--|
G|---2---------2-----0---0-------------0-------------0------|
D|-0-----0---0-----0-------0-----2-------2-----2-------2----|
A|-------------------------------------------0-----0--------|
E|---------------3-----2-------0-----0----------------------|

  way....                     and I won't ask for fool's gold any-

e|----------------------------------------------------------|
B|-3-------3-----0-----------0-----0-------0-----2-------2--|
G|-----4-------4-----0---0-------------0-------------0------|
D|---4-------4-----0-------0-----2-------2-----2-------2----|
A|-2-----2-----------------------------------0-----0--------|
E|---------------3-----2-------0-----0----------------------|

-more..                         I won't ask for fool's gold any-

e|----------------------------------------------------------|
B|-3-------3---0h3-------3---------0-------0-----2-------2--|
G|-----4-------------0-------0---------0-------------0------|
D|---4-------4-----0-------0-----2-------2-----2-------2----|
A|-------------------------------------------0-----0--------|
E|-2-----2-----3-------3-------0-----0----------------------|

-more..                       I won't ask for fool's gold anymore

e|----------------------------------------------------------|
B|-3-------3---0h3-------3-----0-------------2--------------|
G|-----4-------------0-------0-0-------------0--------------|
D|---4-------4-----0-------0---2-------------2--------------|
A|-------------------------------------------0--------------|
E|-2-----2-----3-------3-------0----------------------------|

(Outro:)

e|-------3p2p0h2--------------------------------------------|
B|-----3----------------------------------------------------|
G|---2------------------------------------------------------|
D|-0--------------------------------------------------------|
A|----------------------------------------------------------|
E|----------------------------------------------------------|


| /  slide up
| \  slide down
| h  hammer-on
| p  pull-off
| ~  vibrato
| +  harmonic
| x  Mute note

            
            
Suggest correction
Creating personal tab
Creating personal tab
You can edit any tab online and save it as your Personal.

You can edit, replace or remove any tab part or add personal notes – all changes will be seen only by you.

Personal tabs can be accessed anytime from any device, even offline.
Learn more »
comments
print report bad tab
2 comments total.
0 reply
RisingZombieCro 10 Nov 21, 2016 06:15 AM

Hey mate just started learning it and am still on the first line because i can't seem to help but feel something is off don't you think it goes like this.......Come to think of it the open strings seem weird maybe i'm doing it wrong
-----2p0-----------------------------------------
B|---------3---0h3-------3---3-3s5-------2-----
G|---2---------------0-----------------4-----
D|-0---------0-----0-------0------------------
A|----------------------------------------------
E|-------------3-------3-------0------------

guest
You may want to rate the tab now too:
select rating
Wanna post a correction for this tab? Suggest correction