Oops, an error
Loading. Please wait.

Golden Thread Tab

version 1
version 1

Whole song

23,314 views 39 this week
5 commentsread comments
1 2 3 4 5
excellent!
x 18
add to favorites
launch autoscroll
font size
0
reset
how to read this tab
guitar tuner
Tab Pro tools
  • play this tab
  • loop segment
  • change instrument
  • show fretboard
  • metronome
×
Best way to learn
"Golden Thread"
Autoscroll
slow
fast
+/-
esc
set tempo
stop
Contributor
Difficulty
Capo
intermediate
7th fret
not too sure on the chorus so if you wouldnt mind helping out...

Capo 7
   G  C Em
e|-3--3--3----------------------|
B|-0--0--0----------------------|
G|-0--0--0----------------------|
D|-0--2--2----------------------|
A|-2--3--2----------------------|
E|-3--0--0----------------------|

*chords in the verse are the same as the intro, so the verse is fingerpicked.

INTRO  

    G                              C               
e|--3----3----7p5------5p3---------3----3-----7p5------5p3------|
B|-----0---0--------------------------0---0-------0--------0----|
G|-----------------0-------0------------------------------------|
D|--------------------------------------------------------------|
A|---------------------------------3---------3------3--------3--|
E|--3--------3--------3-------3---------------------------------|

e|--3---3-----7p5------5p3------------3---3------3-----5p3---|
B|----0---0-----------------------------0---0----------------|
G|----------------0--------0---------------------------------|
D|-----------------------------------------------------------|
A|--2-------2---------2---------2-----3-------3--3-----------|
E|-----------------------------------------------------------|

G                        C
Theres lights on in a window
                        Em
And a signpost in the snow
                 C
Theres a golden coin beneath your pillow

G                   C
Theres parachutes above you
               Em
And lifeboats below
                   C
And a heart that loves you
Yeah I think you know


INTRO


G                          C
Theres treasure maps well hidden
                     Em
And diamonds in the dirt
                   C
Theres a golden thread weaved into your shirt
G                        C
Theres a kiss for every tear
                       Em
That rolls down your cheek
                      C                            
And words i shouldnt hear and words you shouldnt speak

G           C         D      G
So tell me one more lie my dear
           C        D      G
Whisper softly so nobody hears
          Em        D            C
Keep me hanging on for another year
     
Oh tell me one more lie my dear

(same)
Well theres whiskey and blankets
And a bonfire when youre cold
Ill hold a golden breath till im silver and old

With only hope to keep alive
And only time to kill
Theres a fool that loved you and he loves you still

(same)
So tell me one more lie my dear
Whisper softly so nobody hears
Keep me hanging on for another year
                            Am
Oh tell me one more lie my dear

Am                           Em
Spin me one more tale sweet heart
                                           G
Weave golden needle and thread through my heart
                                           D
Whisper all the things you know i long to hear
            C        D      G
Oh tell me one more lie my dear
comments
print report bad tab
5 comments total. Showing first comments.
0 reply
matteh wrote on April 15 2012, 08:05 am

In the live in Sideshow Alley video on Youtube, Mike isn't playing the third part of the intro with a 2 on the A string. I can't see him fingering any note on there so I'm assuming its


e|--3---3-----7p5------5p3------------3---3------3-----5p3---|
B|----0---0-----------------------------0---0----------------|
G|----------------0--------0---------------------------------|
D|-----------------------------------------------------------|
A|--0-------0---------0---------0-----3-------3--3-----------|
E|-----------------------------------------------------------|


Otherwise, very well done my friend! :)

0 reply
gerkpei wrote on August 15 2012, 08:03 am

hey matteh, i also watched the live sideshow alley version (amazing right!)
do u reckon u can figure out the tab to his nice ending to the song?

0 reply
matteh wrote on August 24 2012, 07:20 am

From what I can tell:
Capo 7
chords are:


e|x-x-x-3p0|
B|1-1-1-1-|
G|0-0-0-0-|
D|0-2-2-2-|
A|2-0-3-3-|
E|3-3-x-x-|


Arpeggiate it. That's all I've figured out, hopefully you can add to it

I want to post or [tab]
guest
You may want to rate the tab now too:
select rating
Please do not post tabs as comments. Select "correction" instead!