Oops, an error
Loading. Please wait.

Hearts On Fire Tab

version 2
version 2

Whole song

Interactive

15,656 views 87 this week
1 commentread comment
1 2 3 4 5
x 25
add to favorites
×
Save as Personal and add changes to this tab that will be seen only by you. Learn more ›
×
You can save this tab as Personal to edit and correct it or add notes. All changes will be seen only by you. Learn more »
save as personal
new!
launch autoscroll
font size
0
reset
how to read this tab
guitar tuner
Autoscroll
slow
fast
+/-
esc
set tempo
stop
Author
Difficulty
Capo
intermediate
6th fret
Heart's on Fire - Passenger
Tabbed by: Chris

Tuning: Standard
Capo: 6th fret

[Intro]
   C                              F
e|--0-------------------0-------------------------------------------------------|
B|--1--------1h3-----------1------------1-----------1----------1-----------1----|
G|--0----0----------0--------------0h2--------2--------0h2-----------2----------|
D|--2--2----------2--------2------------3--------3----------3-----------3-------|
A|--3--------3----------3-------------------------------------------------------|
E|---------------------------------1-------1-----------1----------1-------------|

[Verse]
   C           G           C              F
e|------------------------------------------------------------------------------------|
B|-----------1-----------0-----------1--------1-----------1----------1-----------1----|
G|-----0-----------0-----------0--------------------0--------0h2-----------2----------|
D|--------2-----------0-----------2-----------3--------3----------3-----------3-------|
A|--3-----------------------3---------------------------------------------------------|
E|--------------3--------------------------1-----1-----------1----------1-------------| x4

Transition from Verse 1 to 2 (this also sounds generally good in parts without singing)
   Am7        G           C       F
e|--3p0--------------------0----------------------------------------------------------|
B|-------------1h3------------1---------1-----------1----------1-----------1----------|
G|----------0----------0-----------0h2--------2--------0h2-----------2----------------|
D|-------2----------0---------2---------3--------3----------3-----------3-------------|
A|--0----------------------3----------------------------------------------------------|
E|-------------3-------------------1-------1-----------1----------1-------------------|

[Chorus]
   C/G                     C              F
e|------------------------------------------------------------------------------------|
B|-----------1-----------1-----------1--------1-----------1----------1-----------1----|
G|-----0-----------0-----------0--------------------0--------0h2-----------2----------|
D|--------2-----------2-----------2-----------3--------3----------3-----------3-------|
A|--------------------------3---------------------------------------------------------|
E|--3-----------3--------------------------1-----1-----------1----------1-------------| x3

*Jump back to playing verse when singing "For you"

************************************

 h   hammer-on
 p   pull-off

************************************
Suggest correction
comments
print report bad tab
1 comment total.
+1 reply
EMPEMC2 10 Apr 16, 2017 12:21 PM

That's awesome, cheers!

guest
You may want to rate the tab now too:
select rating
Wanna post a correction for this tab? Suggest correction