Oops, an error
Loading. Please wait.

If You Go Bass Tab

31 views 6 this week
no commentswrite comment
1 2 3 4 5
3 more votes to show rating
add to favorites
launch autoscroll
font size
0
reset
guitar tuner
Autoscroll
slow
fast
+/-
esc
set tempo
stop
Help us to improve Ultimate-Guitar.com Take our survey!
×
Author
Difficulty
intermediate
About this tab version
This is a simple tab for "If You Go" by Passenger, and is a fun little side project I've had. This is not meant to be exactly like the original, it's been simplified a lot. Was this info helpful? Yes No
[Intro]

G|------------------------|------------------------|
D|------------------------|------------------------|
A|0-----5-----9--9-97-----|0-----5-----9--9-97-----|
E|------------------------|------------------------|

G|------------------------|------------------------|
D|------------------------|--------------7-11-9----|
A|0-----5-----9--9-97-----|0-----5-----9-----------|
E|------------------------|------------------------|


[Verse 1]

G|------------------------|------------------------|
D|------------------------|------------------------|
A|0-----5-----9--9-97-----|0-----5-----9--9-97-----|
E|------------------------|------------------------|

G|------------------------|------------------------|
D|------------------------|-----------------11-9---|
A|0-----5-----7-----------|0-----5-----9-----------|
E|------------------------|--------------10--------|


[Pre-Chorus]

G|------------------------|------------------------|
D|------------------------|------------------------|
A|2-----9-----7-----------|2-----9-----7-----------|
E|------------------------|------------------------|

G|------------------------|------------------------|
D|------------------------|2-----------------------|
A|2-----9-----0-----------|------------------------|
E|------------------------|------------------------|


[Chorus]

G|------------------------|------------------------|
D|------------------------|------------------------|
A|0-----2-----5--5-57-----|0-----2-----5--5-57-----|
E|------------------------|------------------------|
                           x2
G|------------------------|------------------------|
D|4-----------------------|------------------------|
A|------4-----5-7-9-7-----|0-----2-----5-7-9-7\----|
E|------------------------|------------------------|

[Verse 2]

G|------------------------|------------------------|
D|------------------------|------------------------|
A|------------------------|------------------------|
E|------------------------|------------------------|

G|------------------------|------------------------|
D|------------------------|------------------------| The bassist does some improvising here
A|------------------------|0-----2-----5-----7-----|
E|------------------------|------------------------|

G|------------------------|------------------------|
D|------------------------|------------------------|
A|0-----2-----5--5-57-----|0-----2-----5--5-57-----|
E|------------------------|------------------------|

G|------------------------|------------------------|
D|------------------------|------------------------|
A|0-----2-----5--5-57-----|0-----2-----5--5-57-----|
E|------------------------|------------------------|

G|------------------------|------------------------|
D|------------------------|------------------------|
A|0-----2-----5--5-57-----|0-----2-----5-7-9-7-----|
E|------------------------|------------------------|

[Pre-Chorus]

G|------------------------|------------------------|
D|------------------------|------------------------|
A|2-----9-----7-----------|2-----9-----7-----------|
E|------------------------|------------------------|

G|------------------------|------------------------|
D|------------------------|2-----------------------|
A|2-----9-----0-----------|------------------------|
E|------------------------|------------------------|

[Chorus]

G|------------------------|------------------------|
D|------------------------|------------------------|
A|0-----2-----5--5-57-----|0-----2-----5--5-57-----|
E|------------------------|------------------------|

G|------------------------|
D|4-----------------------|
A|------4-----5-7-9-7-----|
E|------------------------|

[Bridge]

G|------------------------|------------------------|
D|------------------------|------------2-----------|
A|2-----------------------|0-----------------------|
E|------------2---------0-|------------------------|

G|------------------------|------------------------|
D|------------------------|------------2-----------|
A|2-----------------------|0-----------------------|
E|------------2---------0-|------------------------|

[Instrumental]

G|------------------------|------------------------|
D|------------------------|------------------------|
A|2--2-2------0--0-0------|2--2-2------0--0-0------|
E|------2-----------0-----|------2-----------0-----|


G|------------------------|------------------------|
D|------------------------|------------------------|
A|2--2-2------0--0-0------|2--2-2------0--0-0------|
E|------2-----------0-----|------2-----------0-----|


G|------------------------|------------------------|
D|------------------------|------------------------|
A|0-----2-----5--5-57-----|0-----2-----5--5-57-----|
E|------------------------|------------------------|

G|------------------------|
D|4-----------------------|
A|------4-----5-7-9-7-----|
E|------------------------|

[Outro]

G|------------------------|------------------------|
D|------------------------|------------------------|
A|0-----2-----5-7-9-7-----|0-----2-----5-7-9-7-----|
E|------------------------|------------------------|

G|------------------------|------------------------|
D|------------------------|------------------------|
A|0-----2-----5-7-9-7-----|0-----2-----5-7-9-7-----|
E|------------------------|------------------------|


G|------------------------|
D|------------------------|
A|0-----------------------|
E|------------------------|





************************************

| \   Slide down

************************************
Suggest correction
Give kudos to tab author, rate the tab!
1 2 3 4 5
comments
print report bad tab
guest
You may want to rate the tab now too:
select rating
Wanna post a correction for this tab? Suggest correction