Oops, an error
Loading. Please wait.

Let Her Go Tab

version 2
version 2
23,275 views 54 this week
no commentswrite comment
1 2 3 4 5
x 5
add to favorites
launch autoscroll
font size
0
reset
how to read this tab
guitar tuner
Autoscroll
slow
fast
+/-
esc
set tempo
stop
Help us to improve Ultimate-Guitar.com Take our survey!
×
Title: Let Her Go
Artist: Passenger
Tempo = 120


Legend
L - tied note



E |-----------------0----------|-----------------------0L---|
B |--------------3-----3--1----|--------1L----1-------------|
G |----------------------------|--0--2-----------2----------|
D |----------------------------|--------3-----------3-------|
A |----------------------------|----------------------------|
E |----------------------------|--1-----------1-------------|


--0--------------0----------|--------------------0-------|
-----------1--3-----3--1----|--------1L-1L-1-------------|
--------2-------------------|--0--2-----------2----------|
-----3--------------0-------|--------2-----------2-------|
----------------------------|--0-----------0-------------|
--1-----------3-------------|----------------------------|


-----------------0----------|----------------------------|
--3-----------3-----3--1----|--------1L-1L-1--------1----|
-----------0----------------|--0--2-----------2L-2-------|
--------0-----------0-------|--------3-----------3-------|
----------------------------|----------------------------|
--3-----------3-------------|--1-----------1-------------|


--3--0L-0--------------0L---|--0-------------------------||
-----------1L-1--3L-3-------|-----------------------1----||
----------------------------|--------2-----------2-------||
--------3-----------0-------|-----------------2----------||
----------------------------|--0-----------0-------------||
--1-----------3-------------|----------------------------||

Suggest correction
comments
print report bad tab
guest
You may want to rate the tab now too:
select rating
Wanna post a correction for this tab? Suggest correction