Oops, an error
Loading. Please wait.

Let Me Dream A While tab

496 views 15 this week
no commentswrite comment
1 2 3 4 5
x 5
add to favorites
×
Save as Personal and add changes to this tab that will be seen only by you. Learn more ›
×
You can save this tab as Personal to edit and correct it or add notes. All changes will be seen only by you. Learn more »
launch autoscroll
font size
0
reset
how to read this tab
guitar tuner
edit
Autoscroll
slow
fast
+/-
esc
set tempo
stop
[Intro]
   C             C             F             C             Gsus4             
e|-0-----------|-------------|-------------|-------------|-------------|
B|-1-----1-----|-------1-----|-------1-----|-------1-----|-------1-----|
G|-0---------0-|-----------0-|-0h2-------0-|-----------0-|-----------0-|
D|-2---2---2---|-----2---2---|-----3---3---|-----2---2---|-----0---0---|
A|-3-----------|-3-----------|-------------|-3-----------|-------------|
E|-------------|-------------|-1-----------|-------------|-3-----------|

   Cmaj9/B       Am7           Gsus4         Fsus2         Fsus2
e|-------------|-------------|-------------|-------------|-------------|
B|-------1-----|-------1-----|-------1-----|-------1-----|-------1-----|
G|-----------0-|-----------0-|-----------0-|-----------0-|-----------0-|
D|-----0---0---|-----2---2---|-----0---0---|-----3---3---|-----3---3---|
A|-2-----------|-0-----------|-------------|-------------|-------------|
E|-------------|-------------|-3-----------|-1-----------|-1-----------|

   C             Gsus4         C             F             C             
e|-------------|-------------|-------------|-------------|-------------|
B|-------1-----|-------1-----|-------1-----|-------1-----|-------1-----|
G|-----------0-|-----------0-|-----------0-|-0h2-------0-|-----------0-|
D|-----2---2---|-----0---0---|-----2---2---|-----3---3---|-----2---2---|
A|-3-----------|-------------|-3-----------|-------------|-------------|
E|-------------|-3-----------|-------------|-1-----------|-3-----------|

   Gsus4         C            
e|-------------|-------------|
B|-------1-----|-------1-----|
G|-----------0-|-----------0-|
D|-----0---0---|-----2---2---|
A|-------------|-3-----------|
E|-3-----------|-------------|


[Verse 1]
Well, when the lights hang low
And I lay down and close my eyes
I see colors and spinning wheels
I hear a language I don't understand
I see people I've not seen for years
I hold a magic in my hands
I sing songs that I never write
'Cause their gone by the morning light

   C             F             C             Gsus4
e|-------------|-------------|-------------|-------------|-------------|
B|-------1-----|-------1-----|-------1-----|-------1-----|-------1-----|
G|-----------0-|-----------2-|-----------0-|-----------0-|-----------0-|
D|-----2---2---|-----3---3---|-----2---2---|-----0---0---|-----0---0---|
A|-3-----------|-------------|-3-----------|-------------|-------------|
E|-------------|-1-----------|-------------|-3-----------|-3-----------|

   Am7           Gsus4         Fsus2         Fsus2
e|-------------|-------------|-------------|-------------|
B|-------1-----|-------1-----|-------1-----|-------1-----|
G|-----------0-|-----------0-|-----------0-|-----------0-|
D|-----2---2---|-----0---0---|-----3---3---|-----3---3---|
A|-0-----------|-------------|-------------|-------------|
E|-------------|-3-----------|-1-----------|-1-----------|

   C             Gsus4         Fsus2         Fsus2         
e|-------------|-------------|-------------|-------------|
B|-------1-----|-------1-----|-------1-----|-------1-----|
G|-----------0-|-----------0-|-----------0-|-----------0-|   x3
D|-----2---2---|-----0---0---|-----3---3---|-----3---3---|
A|-3-----------|-------------|-------------|-------------|
E|-------------|-3-----------|-1-----------|-1-----------|

   C             Gsus4         Dm            Dm         
e|-------------|-------------|-------1-----|-------1-----|
B|-------1-----|-------1-----|-----------3-|-----------3-|
G|-----------0-|-----------0-|-----2---2---|-----2---2---|
D|-----2---2---|-----0---0---|-0-----------|-0-----------|
A|-3-----------|-------------|-------------|-------------|
E|-------------|-3-----------|-------------|-------------|

   Dm            Dm            Fsus2         Fsus2         
e|-------1-----|-------1-----|-------------|-------------|
B|-----------3-|-----------3-|-------1-----|-------1-----|
G|-----2---2---|-----2---2---|-----------0-|-----------0-|
D|-0-----------|-0-----------|-----3---3---|-----3---3---|
A|-------------|-------------|-------------|-------------|
E|-------------|-------------|-1-----------|-1-----------|

   Gsus4         Gsus4
e|-------------|-------------|
B|-------1-----|-------1-----|
G|-----------0-|-----------0-|
D|-----0---0---|-----0---0---|
A|-------------|-------------|
E|-3-----------|-3-----------|


[Solo]
   C             F             C             Gsus4         C    
e|-0-----------|-------------|-------------|-------------|-------------|
B|-------1-----|-------1-----|-------1-----|-------1-----|-------1-----|
G|-----------0-|-0h2-------0-|-----------0-|-----------0-|-----------0-|
D|-----2---2---|-----3---3---|-----2---2---|-----0---0---|-----2---2---|
A|-3-----------|-------------|-3-----------|-------------|-3-----------|
E|-------------|-1-----------|-------------|-3-----------|-------------|

   F             C             Gsus4         C    
e|-------------|-------------|-------------|-------------|
B|-------1-----|-------1-----|-------1-----|-------1-----|
G|-0h2-------0-|-----------0-|-----------0-|-----------0-|
D|-----3---3---|-----2---2---|-----0---0---|-----2---2---|
A|-------------|-3-----------|-------------|-3-----------|
E|-1-----------|-------------|-3-----------|-------------|

[Verse 2]
Yes, and I dream  away 
And I'm as free as the summer sky
I swim in oceans turquoise and deep
I lay down in fields of gold
I see mountains snow white and steep
Though I never feel the cold
I can't stay there, try as I might
'Cause it's gone by the morning light

   C             F             C             Gsus4
e|-------------|-------------|-------------|-------------|-------------|
B|-------1-----|-------1-----|-------1-----|-------1-----|-------1-----|
G|-----------0-|-----------2-|-----------0-|-----------0-|-----------0-|
D|-----2---2---|-----3---3---|-----2---2---|-----0---0---|-----0---0---|
A|-3-----------|-------------|-3-----------|-------------|-------------|
E|-------------|-1-----------|-------------|-3-----------|-3-----------|

   Am7           Gsus4         Fsus2         Fsus2
e|-------------|-------------|-------------|-------------|
B|-------1-----|-------1-----|-------1-----|-------1-----|
G|-----------0-|-----------0-|-----------0-|-----------0-|
D|-----2---2---|-----0---0---|-----3---3---|-----3---3---|
A|-0-----------|-------------|-------------|-------------|
E|-------------|-3-----------|-1-----------|-1-----------|

   C             Gsus4         Fsus2         Fsus2         
e|-------------|-------------|-------------|-------------|
B|-------1-----|-------1-----|-------1-----|-------1-----|
G|-----------0-|-----------0-|-----------0-|-----------0-|   x3
D|-----2---2---|-----0---0---|-----3---3---|-----3---3---|
A|-3-----------|-------------|-------------|-------------|
E|-------------|-3-----------|-1-----------|-1-----------|

   C             Gsus4         Dm            Dm         
e|-------------|-------------|-------1-----|-------1-----|
B|-------1-----|-------1-----|-----------3-|-----------3-|
G|-----------0-|-----------0-|-----2---2---|-----2---2---|
D|-----2---2---|-----0---0---|-0-----------|-0-----------|
A|-3-----------|-------------|-------------|-------------|
E|-------------|-3-----------|-------------|-------------|

   Dm            Dm            Fsus2         Fsus2         
e|-------1-----|-------1-----|-------------|-------------|
B|-----------3-|-----------3-|-------1-----|-------1-----|
G|-----2---2---|-----2---2---|-----------0-|-----------0-|
D|-0-----------|-0-----------|-----3---3---|-----3---3---|
A|-------------|-------------|-------------|-------------|
E|-------------|-------------|-1-----------|-1-----------|

   Gsus4         Gsus4
e|-------------|-------------|
B|-------1-----|-------1-----|
G|-----------0-|-----------0-|
D|-----0---0---|-----0---0---|
A|-------------|-------------|
E|-3-----------|-3-----------|


[Pre-chorus]
   C             C             C             C         
e|-0-----------|-------------|-3-----------|-------------|
B|-------1-----|-------1-----|-------1-----|-------1-----|
G|-----------0-|-----------0-|-----------0-|-----------0-|
D|-----2---2---|-----2---2---|-----2---2---|-----2---2---|
A|-3-----------|-3-----------|-3-----------|-3-----------|
E|-------------|-------------|-------------|-------------|


[Chorus]
So, if you find that I'm sleeping
Soft and warm as a child
Would you just let me be
For a moment happy and free?
Oh, won't you please let me dream a while?

   F             F             Gsus4         Gsus4         
e|-------------|-------------|-------------|-------------|
B|-------1-----|-------1-----|-------1-----|-------1-----|
G|-0p2-------2-|-----------2-|-----------0-|-----------0-|
D|-----3---3---|-----3---3---|-----0---0---|-----0---0---|
A|-------------|-------------|-------------|-------------|
E|-1-----------|-1-----------|-3-----------|-3-----------|

   C             C             C             C         
e|-0-----------|-0-----------|-3p0---------|-------------|
B|-------1-----|-------1-----|-------1-----|-------1-----|
G|-----------0-|-----------0-|-----------0-|-----------0-|
D|-----2---2---|-----2---2---|-----2---2---|-----2---2---|
A|-3-----------|-3-----------|-3-----------|-3-----------|
E|-------------|-------------|-------------|-------------|

   F             F             Gsus4         Gsus4         
e|-------------|-------------|-------------|-------------|
B|-------1-----|-------1-----|-------1-----|-------1-----|
G|-0p2-------2-|-----------2-|-----------0-|-----------0-|
D|-----3---3---|-----3---3---|-----0---0---|-----0---0---|
A|-------------|-------------|-------------|-------------|
E|-1-----------|-1-----------|-3-----------|-3-----------|

   C             C             C             C         
e|-------------|-0-----------|-----------0-|-------------|
B|-------1-----|-------1-----|-------1-----|-------1-----|
G|-----------0-|-----------0-|-3-----------|-----------0-|
D|-----2---2---|-----2---2---|-----2---2---|-----2---2---|
A|-3-----------|-3-----------|-3-----------|-3-----------|
E|-------------|-------------|-------------|-------------|

   F             F             Gsus4         Gsus4         
e|-------------|-------------|-------------|-------------|
B|-------1-----|-------1-----|-------------|-------1-----|
G|-0p2-------2-|-----------2-|-------0---0-|-----------0-|
D|-----3---3---|-----3---3---|-----0---0---|-----0---0---|
A|-------------|-------------|-------------|-------------|
E|-1-----------|-1-----------|-3-----------|-3-----------|

   C             Cmaj9/B       Am7           Gsus4       
e|-------------|-------------|-------------|-------------|
B|-------1-----|-------1-----|-------1-----|-------1-----|
G|-----------0-|-----------0-|-----------0-|-----------0-|
D|-----2---2---|-----0---0---|-----2---2---|-----0---0---|
A|-3-----------|-2-----------|-0-----------|-------------|
E|-------------|-------------|-------------|-3-----------|

   Fsus2         Fsus2         Gsus4         Gsus4         
e|-------------|-------------|-------------|-------------|
B|-------1-----|-------1-----|-------1-----|-------1-----|
G|-----------0-|-----------0-|-----------0-|-----------0-|
D|-----3---3---|-----3---3---|-----0---0---|-----0---0---|
A|-------------|-------------|-------------|-------------|
E|-1-----------|-1-----------|-3-----------|-3-----------|


[Solo]
   C             F             C             Gsus4         C    
e|-0-----------|-------------|-------------|-------------|-------------|
B|-------1-----|-------1-----|-------1-----|-------1-----|-------1-----|
G|-----------0-|-0h2-------0-|-----------0-|-----------0-|-----------0-|
D|-----2---2---|-----3---3---|-----2---2---|-----0---0---|-----2---2---|
A|-3-----------|-------------|-3-----------|-------------|-3-----------|
E|-------------|-1-----------|-------------|-3-----------|-------------|

   F             C             Gsus4         C    
e|-------------|-------------|-------------|-------------|
B|-------1-----|-------1-----|-------1-----|-------1-----|
G|-0h2-------0-|-----------0-|-----------0-|-----------0-|
D|-----3---3---|-----2---2---|-----0---0---|-----2---2---|
A|-------------|-3-----------|-------------|-3-----------|
E|-1-----------|-------------|-3-----------|-------------|

[Verse 3]
Yeah, when the night draws in 
And I lay down to rest my head
I find boxes of photographs
And old movies I saw long ago
I can still hear my sister laugh
On the beaches of Mexico
Where the phosphorescence shines 'neath the moon 
And a thousand stars, they glow
But they always fade out so soon
To a place where I just can't go
Though I hold on to them so tight
They are gone by the morning light

   C             F             C             Gsus4
e|-------------|-------------|-------------|-------------|-------------|
B|-------1-----|-------1-----|-------1-----|-------1-----|-------1-----|
G|-----------0-|-----------2-|-----------0-|-----------0-|-----------0-|
D|-----2---2---|-----3---3---|-----2---2---|-----0---0---|-----0---0---|
A|-3-----------|-------------|-3-----------|-------------|-------------|
E|-------------|-1-----------|-------------|-3-----------|-3-----------|

   Am7           Gsus4         Fsus2         Fsus2
e|-------------|-------------|-------------|-------------|
B|-------1-----|-------1-----|-------1-----|-------1-----|
G|-----------0-|-----------0-|-----------0-|-----------0-|
D|-----2---2---|-----0---0---|-----3---3---|-----3---3---|
A|-0-----------|-------------|-------------|-------------|
E|-------------|-3-----------|-1-----------|-1-----------|

   C             Gsus4         Fsus2         Fsus2         
e|-------------|-------------|-------------|-------------|
B|-------1-----|-------1-----|-------1-----|-------1-----|
G|-----------0-|-----------0-|-----------0-|-----------0-|   x5
D|-----2---2---|-----0---0---|-----3---3---|-----3---3---|
A|-3-----------|-------------|-------------|-------------|
E|-------------|-3-----------|-1-----------|-1-----------|

   C             Gsus4         F             F         
e|-------------|-------------|-------------|-------------|
B|-------1-----|-------1-----|-------1-----|-------1-----|
G|-----------0-|-----------0-|-0p2-------2-|-----------2-|
D|-----2---2---|-----0---0---|-----3---3---|-----3---3---|
A|-3-----------|-------------|-------------|-------------|
E|-------------|-3-----------|-1-----------|-1-----------|

   C             Gsus4         Fsus2         Fsus2         
e|-------------|-------------|-------------|-------------|
B|-------1-----|-------1-----|-------1-----|-------1-----|
G|-----------0-|-----------0-|-----------0-|-----------0-|
D|-----2---2---|-----0---0---|-----3---3---|-----3---3---|
A|-3-----------|-------------|-------------|-------------|
E|-------------|-3-----------|-1-----------|-1-----------|

   C             Gsus4         Dm            Dm         
e|-------------|-------------|-------1-----|-------1-----|
B|-------1-----|-------1-----|-----------3-|-----------3-|
G|-----------0-|-----------0-|-----2---2---|-----2---2---|
D|-----2---2---|-----0---0---|-0-----------|-0-----------|
A|-3-----------|-------------|-------------|-------------|
E|-------------|-3-----------|-------------|-------------|

   Dm            Dm            Fsus2         Fsus2         
e|-------1-----|-------1-----|-------------|-------------|
B|-----------3-|-----------3-|-------1-----|-------1-----|
G|-----2---2---|-----2---2---|-----------0-|-----------0-|
D|-0-----------|-0-----------|-----3---3---|-----3---3---|
A|-------------|-------------|-------------|-------------|
E|-------------|-------------|-1-----------|-1-----------|

   Gsus4         Gsus4
e|-------------|-------------|
B|-------1-----|-------1-----|
G|-----------0-|-----------0-|
D|-----0---0---|-----0---0---|
A|-------------|-------------|
E|-3-----------|-3-----------|


[Pre-chorus]
   C             C             C             C         
e|-------------|-------------|-------------|-3-----------|
B|-------1-----|-------1-----|-------1-----|-------1-----|
G|-----------0-|-----------0-|-----------0-|-----------0-|
D|-----2---2---|-----2---2---|-----2---2---|-----2---2---|
A|-3-----------|-3-----------|-3-----------|-3-----------|
E|-------------|-------------|-------------|-------------|

[Chorus]
So, if you find that I'm sleeping
Soft and warm as a child
Would you just let me be
For a moment happy and free?
Oh, won't you please let me dream a while?
Oh, won't you please let me dream a while?

   F             F             Gsus4         Gsus4         
e|-------------|-------------|-------------|-------------|
B|-------1-----|-------1-----|-------1-----|-------1-----|
G|-0p2-------2-|-----------2-|-----------0-|-----------0-|
D|-----3---3---|-----3---3---|-----0---0---|-----0---0---|
A|-------------|-------------|-------------|-------------|
E|-1-----------|-1-----------|-3-----------|-3-----------|

   C             C             C             C         
e|-------------|-0-----------|-3-----------|-0-----------|
B|-------1-----|-------1-----|-------1-----|-------1-----|
G|-----------0-|-----------0-|-----------0-|-----------0-|
D|-----2---2---|-----2---2---|-----2---2---|-----2---2---|
A|-3-----------|-3-----------|-3-----------|-3-----------|
E|-------------|-------------|-------------|-------------|

   F             F             Gsus4         Gsus4         
e|-------------|-------------|-------------|-------------|
B|-------1-----|-------1-----|-------1-----|-------1-----|
G|-0p2-------2-|-----------2-|-----------0-|-----------0-|
D|-----3---3---|-----3---3---|-----0---0---|-----0---0---|
A|-------------|-------------|-------------|-------------|
E|-1-----------|-1-----------|-3-----------|-3-----------|

   C             C             C             C         
e|-0-----------|-0-----------|-----------0-|-------------|
B|-------1-----|-------1-----|-------1-----|-------1-----|
G|-----------0-|-----------0-|-3-----------|-----------0-|
D|-----2---2---|-----2---2---|-----2---2---|-----2---2---|
A|-3-----------|-3-----------|-3-----------|-3-----------|
E|-------------|-------------|-------------|-------------|

   F             F             Gsus4         Gsus4         
e|-------------|-------------|-------------|-------------|
B|-------1-----|-------1-----|-------1-----|-------1-----|
G|-0p2-------2-|-----------2-|-----------0-|-----------0-|
D|-----3---3---|-----3---3---|-----0---0---|-----0---0---|
A|-------------|-------------|-------------|-------------|
E|-1-----------|-1-----------|-3-----------|-3-----------|

   C             Cmaj9/B       Am7           Gsus4       
e|-------------|-------------|-------------|-------------|
B|-------1-----|-------1-----|-------1-----|-------1-----|
G|-----------0-|-----------0-|-----------0-|-----------0-|
D|-----2---2---|-----0---0---|-----2---2---|-----0---0---|
A|-3-----------|-2-----------|-0-----------|-------------|
E|-------------|-------------|-------------|-3-----------|

   Fsus2         Fsus2         Gsus4         Gsus4         
e|-------------|-------------|-------------|-------------|
B|-------1-----|-------1-----|-------1-----|-------1-----|
G|-----------0-|-----------0-|-----------0-|-----------0-|
D|-----3---3---|-----3---3---|-----0---0---|-----0---0---|
A|-------------|-------------|-------------|-------------|
E|-1-----------|-1-----------|-3-----------|-3-----------|

   Am7           Cmaj9/B       C             C       
e|-------------|-------------|-------------|-------------|
B|-------1-----|-------1-----|-------1-----|-------1-----|
G|-----------0-|-----------0-|-----------0-|-----------0-|
D|-----2---2---|-----0---0---|-----2---2---|-----2---2---|
A|-0-----------|-2-----------|-3-----------|-3-----------|
E|-------------|-------------|-------------|-------------|

   Fsus2         Fsus2         Gsus4         Gsus4         
e|-------------|-------------|-------------|-------------|
B|-------1-----|-------1-----|-------1-----|-------1-----|
G|-----------0-|-----------0-|-----------0-|-----------0-|
D|-----3---3---|-----3---3---|-----0---0---|-----0---0---|
A|-------------|-------------|-------------|-------------|
E|-1-----------|-1-----------|-3-----------|-3-----------|

[Outro]
   C             F             Gsus4         C    
e|-0-----------|-------------|-------------|-------------|
B|-------1-----|-------1-----|-1p0---------|-1-----------|
G|-----------0-|-0h2-------2-|-------0-----|-0-----------|
D|-----2---2---|-----3---3---|-----0---0---|-2-----------|
A|-3-----------|-------------|-------------|-3-----------|
E|-------------|-1-----------|-3-----------|-------------|


************************************

| h   Hammer-on
| p   Pull-off

************************************
Suggest correction
Creating personal tab
Creating personal tab
You can edit any tab online and save it as your Personal.

You can edit, replace or remove any tab part or add personal notes – all changes will be seen only by you.

Personal tabs can be accessed anytime from any device, even offline.
Learn more »
comments
print report bad tab
guest
You may want to rate the tab now too:
select rating
Wanna post a correction for this tab? Suggest correction