Oops, an error
Loading. Please wait.

The Girl Running tab

version 2
version 2

Whole song

2,271 views 3 this week
3 commentsread comments
1 2 3 4 5
x 4
add to favorites
×
Save as Personal and add changes to this tab that will be seen only by you. Learn more ›
×
You can save this tab as Personal to edit and correct it or add notes. All changes will be seen only by you. Learn more »
launch autoscroll
font size
0
reset
how to read this tab
guitar tuner
edit
Autoscroll
slow
fast
+/-
esc
set tempo
stop
Tabbed by: Brodie

Tuning: Standard

Capo 3

Chords used are: C, Am, G and F
At the end of the second verse, only play the through C, Am and G. The F isn't played 
and he justs starts the intro again.

Enjoy :)

The Structure of the song is:

Intro
Verse 1
Verse 2
Intro
Verse 3
Bridge
Verse 4 (coda)




Intro

e|--------------------3-------5------0--------------------------------|
B|-----1-----------1-------1-------0----1-----------1-----1--------1--|
G|-----------0--------------------------------2----------------2------| x2
D|-----2--------2--------2-------0------2--------2--------2------2----|
A|--3-----3-----------3--------------0------0----------0-----0--------|
E|----------------------------3---------------------------------------|

e|-------------3p0----------------------------3p0---------------|
B|-----1--------------1-------1-----1---------------1-------1---|
G|---------2--------------2--------------0--------------0-------|
D|-----3-----3--------3-----3-------0------0--------0-----0-----|
A|--------------------------------------------------------------|
E|--1----1---------1----1--------3-----3----------3---3---------|


e|-----------------|
B|-----1--------1--|
G|----------0------| x4
D|-----2------2----|
A|--3-----3--------|
E|-----------------|




Verse

e|-----------------|
B|-----1--------1--|
G|----------0------| x4
D|-----2------2----|
A|--3-----3--------|
E|-----------------|


e|-----------------|
B|-----1--------1--|
G|----------2------| x4
D|-----2------2----|
A|--0-----0--------|
E|-----------------|


e|-----------------|
B|-----0--------0--|
G|-----------0-----| x4
D|-----0-------0---|
A|-----------------|
E|--3------3-------|


e|-----------------|
B|-----1--------1--|
G|----------2------| x4
D|-----3------3----|
A|-----------------|
E|--1----1---------|




Bridge


e|-----------------|
B|-----1--------1--|
G|----------2------| x4
D|-----2------2----|
A|--0-----0--------|
E|-----------------|

e|-----------------|
B|-----1--------1--|
G|----------2------| x4
D|-----3------3----|
A|-----------------|
E|--1----1---------|

e|-----------------|
B|-----0--------0--|
G|----------0------| x4
D|-----0------0----|
A|-----------------|
E|--3-----3--------|

e|-----------------|
B|-----1--------1--|
G|----------2------| x4
D|-----2------2----|
A|--3-----3--------|
E|-----------------|

e|-----------------|
B|-----1--------1--|
G|----------2------| x4
D|-----2------2----|
A|--0-----0--------|
E|-----------------|


e|-----------------|
B|-----1--------1--|
G|----------2------| x4
D|-----3------3----|
A|-----------------|
E|--1-----1--------|


e|-----------------|
B|-----0--------0--|
G|----------0------| x4
D|-----0------0----|
A|-----------------|
E|--3-----3--------|

            
            
Suggest correction
Creating personal tab
Creating personal tab
You can edit any tab online and save it as your Personal.

You can edit, replace or remove any tab part or add personal notes – all changes will be seen only by you.

Personal tabs can be accessed anytime from any device, even offline.
Learn more »
comments
print report bad tab
3 comments total.
0 reply
brodiekingg 152 Oct 31, 2013 02:43 AM

e|--------------------3-------5------0--------------------------------|
B|-----1-----------1-------1-------0----1-----------1-----1--------1--|
G|-----------0--------------------------------2----------------2------| x2
D|-----2--------2--------2-------0------2--------2--------2------2----|
A|--3-----3-----------3--------------0------0----------0-----0--------|
E|----------------------------3---------------------------------------|

Only difference is there is an open high e string added in the intro.

0 reply
Newto 28 Apr 12, 2015 08:32 AM

Don't know why the other tab for this song is 5 stars, it just sounds wrong without that high e in the intro as it's such an obvious and dominant note when you listen to the song. I'd already figured it out but I'm still going to rate this 5 as it's much better. I don't know whether there is a different version to the one on the album but the rhythm on this is better as well. Good job

0 reply
Newto 28 Apr 12, 2015 08:51 AM

Ok I got very confused at how to play the bottom E as 1 and still doing the 3p0 with the top e, the trick is to use your thumb for the bottom E and then you don't need to bar across the first fret.

guest
You may want to rate the tab now too:
select rating
Wanna post a correction for this tab? Suggest correction