Oops, an error
Loading. Please wait.

When We Were Young tab

version 1
version 1

Whole song

Interactive

9,090 views 57 this week
5 commentsread comments
1 2 3 4 5
x 11
add to favorites
×
Save as Personal and add changes to this tab that will be seen only by you. Learn more ›
×
You can save this tab as Personal to edit and correct it or add notes. All changes will be seen only by you. Learn more »
launch autoscroll
font size
0
reset
how to read this tab
guitar tuner
edit
Autoscroll
slow
fast
+/-
esc
set tempo
stop
Tuning: Standard
Capo: 3

[Intro]
       C                 G                     Am                  F
e|-------------|-3--------5p3-------|-0-------------------|------------------|
B|-----1-------|-0------------------|-1-----------1-------|---------1--------|
G|--------0----|-------0----------0-|-------0-----------0-|-0h2--------2--0--|
D|-----------2-|----0----------0----|----2-----------2----|------3-----------|
A|--3----------|--------------------|-0--------0----------|------------------|
E|-------------|-3--------3---------|---------------------|-1----------1-----|

          C              G               F                     F
e|-------------------|-3--1p0-|---------------------|------------------------|
B|--------1----------|-0------|-1-----------1-------|---------1--------------|
G|--------------0----|--------|-------0-----------0-|-0h2-----------2-----0--|
D|-----2-----------2-|--------|----3-----------3----|------3-----------3-----|
A|--3--------3-------|--------|---------------------|------------------------|
E|-------------------|-3------|-1--------1----------|-1----------1-----------|

          C                  G                   Am                   F
e|----------------|-3--------5p3-------|-0-------------------|------------------|
B|--------1-------|-0--------0---------|-1-----------1-------|---------1--------|
G|-----------0----|-------0----------0-|-------0-----------0-|-0h2--------2--0--|
D|-----2--------2-|----0----------0----|----2-----------2----|------3-----------|
A|--3-------------|--------------------|-0--------0----------|------------------|
E|----------------|-3--------3---------|---------------------|-1----------1-----|

         C              G               F                     F
e|-------------------|-3--1p0-|---------------------|------------------------|
B|--------1----------|-0--0---|-1-----------1-------|---------1-----------1--|
G|--------------0----|--------|-------0-----------0-|--------------0---------|
D|-----2-----------2-|--------|----3-----------3----|------3-----------3-----|
A|--3--------3-------|--------|---------------------|------------------------|
E|-------------------|-3------|-1--------1----------|-1----------1-----------|

[Chorus]
               We used to never say never                Used to think we'll live forever
           C                       G                     Am                    F
e|----------------------|---------------------|---------------------|----------------------|
B|--------1-----------1-|-------1-----------1-|-------1-----------1-|-------1-----------1--|
G|--------------0-------|--0----------0-------|-------------0-------|--0----------0--------|
D|-----2-----------2----|----0-----------0----|----2-----------2----|----3-----------3-----|
A|--3--------3----------|---------------------|-0--------0----------|----------------------|
E|----------------------|-3--------3----------|---------------------|-1--------1-----------|

               Flying free beneath the sun
           C                       G                     F                     F
e|----------------------|---------------------|---------------------|----------------------|
B|--------1-----------1-|-------1-----------1-|-------1-----------1-|-3-----------1--------|
G|--------------0-------|-------------0-------|-------------0-------|-------0-----------0--|
D|-----2-----------2----|----0-----------0----|----3-----------3----|----3-----------3-----|
A|--3--------3----------|---------------------|---------------------|----------------------|
E|----------------------|-3--------3----------|-1--------1----------|-1--------1-----------|

             Days go running and hiding         The weeks          go slipping and sliding,
          C                       G                     Am                    F
e|----------------------|---------------------|---------------------|----------------------|
B|--------1-----------1-|-------1-----------1-|-------1-----------1-|-------1-----------1--|
G|--------------0-------|--0----------0-------|-------------0-------|-------------0--------|
D|-----2-----------2----|----0-----------0----|----2-----------2----|----3-----------3-----|
A|--3--------3----------|---------------------|-0--------0----------|----------------------|
E|----------------------|-3--------3----------|---------------------|-1--------1-----------|

             Years leave quicker every time they come                 Remember when we were
           C                       G                     F                     F
e|----------------------|---------------------|---------------------|----------------------|
B|--------1-----------1-|-------1-----------1-|-------1-----------1-|-------1-----------1--|
G|--------------0-------|--0----------0-------|-------------0-------|-------------0--------|
D|-----2-----------2----|----0-----------0----|----3-----------3----|----3-----------3-----|
A|--3--------3----------|---------------------|---------------------|----------------------|
E|----------------------|-3--------3----------|-1--------1----------|-1--------1-----------|

   young
          C                       G                     F                    F
e|--------0-------------|---------------------|---------------------|-----------------|
B|--------------3-------|-------1-----0-------|-------1-----0-------|--------1--------|
G|--------------------0-|--0----------------0-|--0----------------0-|-0h2-------2--0--|
D|-----2-----------2----|----0-----------0----|----3-----------3----|------3----------|
A|--3--------3----------|---------------------|---------------------|-----------------|
E|----------------------|-3--------3----------|-1--------1----------|-1---------1-----|

          C                       G                     F                    F
e|--------0-------------|---------------------|------------------|--------------------|
B|--------------3-------|-------1-----0-------|---------1------1-|--------1--------1--|
G|---0----------------0-|--0----------------0-|-0h2--------------|-0h2----------------|
D|-----2-----------2----|----0-----------0----|------3-------3---|------3-------3-----|
A|--3--------3----------|---------------------|------------------|--------------------|
E|----------------------|-3--------3----------|-1---------1------|-1---------1--------|

[Verse 1]
             Look back to the best of days                 Collecting our yesterdays
           G                       Am                     F                      C
e|----------------------|---------------------|-----------------------|----------------------|
B|--------0-----------0-|-------1-----------1-|---------1-----------1-|-------1-----------1--|
G|--------------0-------|-------------0-------|-0h2-----------2-------|-------------0--------|
D|-----0-----------0----|----2-----------2----|------3-----------3----|----2-----------2-----|
A|----------------------|-0--------0----------|-----------------------|-3--------3-----------|
E|--3--------3----------|---------------------|-1----------1----------|----------------------|

              As they built up one by one
           G                 C          G                 F                      F
e|----------------------|---------|------------|---------------------|-----------------------|
B|--------0-----------0-|-------1-|------------|-------1-----------1-|---------1-----------1-|
G|--------------0-------|---------|----0-------|-------------0-------|-0h2-----------2-------|
D|-----0-----------0----|----2----|-------0----|----3-----------3----|------3-----------3----|
A|----------------------|-3-------|------------|---------------------|-----------------------|
E|--3--------3----------|---------|-3----------|-1--------1----------|-1----------1----------|

           Ow, how we beg and we borrow                           Say we'd do it tomorrow,
          G                  C          G                F                      C
e|----------------------|---------|------------|---------------------|-----------------------|
B|--------0-----------0-|-------1-|----------1-|-------1-----------1-|--------1-----------1--|
G|--------------0-------|---------|----0-------|-------------2-------|--------------0--------|
D|-----0-----------0----|----2----|-------0----|----3-----------3----|-----2-----------2-----|
A|----------------------|-3-------|------------|---------------------|-3---------3-----------|
E|--3--------3----------|---------|-3----------|-1--------1----------|-----------------------|

             But tomorrow never seems to come
           G                 Am         G                 F                      F
e|----------------------|---------|------------|---------------------|----------1------------|
B|--------0-----------0-|-------1-|------------|-------1-----------3-|----------------3---1--|
G|--------------0-------|---------|----0-------|-------------0-------|----0------------------|
D|-----0-----------0----|----2----|-------0----|----3-----------3----|-------3----------3----|
A|----------------------|-0-------|------------|---------------------|-----------------------|
E|--3--------3----------|---------|-3----------|-1--------1----------|-1-----------1---------|

[Chorus]
               We used to never say never                Used to think we live forever
           C                       G                     Am                    F
e|----------------------|---------------------|---------------------|----------------------|
B|--------1-----------1-|-------0-------------|-------1-----------1-|-------1-----------1--|
G|--------------0-------|--0----------0-------|-------------0-------|--0----------0--------|
D|-----2-----------2----|----0-----------0----|----2-----------2----|----3-----------3-----|
A|--3--------3----------|---------------------|-0--------0----------|----------------------|
E|----------------------|-3--------3----------|---------------------|-1--------1-----------|

               Flying free beneath the sun
           C                       G                     F                     F
e|----------------------|---------------------|---------------------|----1-----------------|
B|--------1-----------1-|-------0-------------|-------1-----------3-|----------3---------1-|
G|--------------0-------|--0----------0-------|-------------0-------|----------------0-----|
D|-----2-----------2----|----0-----------0----|----3-----------3----|-------3----------3---|
A|--3--------3----------|---------------------|---------------------|----------------------|
E|----------------------|-3--------3----------|-1--------1----------|-1-----------1--------|

             Days go running and hiding         The weeks          go slipping and sliding,
          C                       G                     Am                    F
e|----------------------|---------------------|---------------------|----------------------|
B|--------1-----------1-|-------1-----------1-|-------1-----------1-|-------1-----------1--|
G|--------------0-------|--0----------0-------|-------------0-------|--0----------0--------|
D|-----2-----------2----|----0-----------0----|----2-----------2----|----3-----------3-----|
A|--3--------3----------|---------------------|-0--------0----------|----------------------|
E|----------------------|-3--------3----------|---------------------|-1--------1-----------|

             Years leave quicker every time they come                 Remember when we were
           C                       G                     F                     F
e|----------------------|---------------------|---------------------|----------------------|
B|--------1-----------1-|-------0-----------0-|-------1-----------1-|-------1-----------1--|
G|--------------0-------|--0----------0-------|-------------0-------|--0----------0--------|
D|-----2-----------2----|----0-----------0----|----3-----------3----|----3-----------3-----|
A|--3--------3----------|---------------------|---------------------|----------------------|
E|----------------------|-3--------3----------|-1--------1----------|-1--------1-----------|

   young
          C                       G                     F                    F
e|--------0-------------|---------------------|---------------------|-----------------|
B|--------------3-------|-------1-----0-------|-------1-----0-------|--------1--------|
G|--------------------0-|--0----------------0-|--0----------------0-|-0h2-------2--0--|
D|-----2-----------2----|----0-----------0----|----3-----------3----|------3----------|
A|--3--------3----------|---------------------|---------------------|-----------------|
E|----------------------|-3--------3----------|-1--------1----------|-1---------1-----|

          C                       G                     F                    F
e|--------0-------------|---------------------|------------------|--------------------|
B|--------------3-------|-------1-----0-------|---------1------1-|--------1--------1--|
G|---0----------------0-|--0----------------0-|-0h2--------------|-0h2----------------|
D|-----2-----------2----|----0-----------0----|------3-------3---|------3-------3-----|
A|--3--------3----------|---------------------|------------------|--------------------|
E|----------------------|-3--------3----------|-1---------1------|-1---------1--------|

[Verse 2]
           And we were boys on the beach                Everything was in reach
           G                       Am                     F                      C
e|----------------------|---------------------|--------------------|----------------------|
B|--------0-----------0-|-------1-------------|-1-----------1------|-------1-----------1--|
G|--------------0-------|-------------0-------|-------0----------0-|-------------0--------|
D|-----0-----------0----|----2-----------2----|----3----------3----|----2-----------2-----|
A|----------------------|-0--------0----------|--------------------|-3--------3-----------|
E|--3--------3----------|---------------------|-1--------1---------|----------------------|

              I know it's hard to remember
           G                 C          G                 F                      F
e|----------------------|---------|------------|---------------------|-----------------------|
B|--------0-----------0-|-------1-|----------1-|-1-----------1-------|---------1-----------1-|
G|--------------0-------|---------|----0-------|-------0-----------0-|-0h2-----------2-------|
D|-----0-----------0----|----2----|-------0----|----3-----------3----|------3-----------3----|
A|----------------------|-3-------|------------|---------------------|-----------------------|
E|--3--------3----------|---------|-3----------|-1--------1----------|-1----------1----------|

          But oh how the years they vanish               I always wanted to learn Spanish
          G                  C          G                F                      C
e|----------------------|---------|------------|---------------------|-----------------------|
B|--------0-----------0-|-------1-|----------1-|-------1-----------1-|--------1--------------|
G|--------------0-------|---------|----0-------|-------------0-------|--------------0--------|
D|-----0-----------0----|----2----|-------0----|----3-----------3----|-----2-----------2-----|
A|----------------------|-3-------|------------|---------------------|-3---------3-----------|
E|--3--------3----------|---------|-3----------|-1--------1----------|-----------------------|

             And travel round South America
           G                 Am         G                 F                      F
e|----------------------|---------|------------|---------------------|----------1------------|
B|--------0-----------0-|-------1-|------------|-------1-----------3-|----------------3---1--|
G|--------------0-------|---------|----0-------|-------------0-------|----0------------------|
D|-----0-----------0----|----2----|-------0----|----3-----------3----|-------3----------3----|
A|----------------------|-0-------|------------|---------------------|-----------------------|
E|--3--------3----------|---------|-3----------|-1--------1----------|-1-----------1---------|

[Chorus]
               We used to never say never                Used to think we live forever
           C                       G                     Am                    F
e|----------------------|---------------------|---------------------|----------------------|
B|--------1-----------1-|-------0-----------0-|-------1-----------1-|-------1-----------1--|
G|--------------0-------|--0----------0-------|-------------0-------|--0----------0--------|
D|-----2-----------2----|----0-----------0----|----2-----------2----|----3-----------3-----|
A|--3--------3----------|---------------------|-0--------0----------|----------------------|
E|----------------------|-3--------3----------|---------------------|-1--------1-----------|

               Flying free beneath the sun
           C                       G                     F                     F
e|----------------------|---------------------|---------------------|-------1--------------|
B|--------1-----------1-|-------0-------------|-1-----------1-------|-3-----------3------1-|
G|--------------0-------|--0----------0-------|-------0-----------0-|----------------------|
D|-----2-----------2----|----0-----------0----|----3-----------3----|----3------------3----|
A|--3--------3----------|---------------------|---------------------|----------------------|
E|----------------------|-3--------3----------|-1--------1----------|-1--------1-----------|

             Days go running and hiding         The weeks          go slipping and sliding,
          C                       G                     Am                    F
e|----------------------|---------------------|---------------------|----------------------|
B|--------1-----------1-|-------1-----------1-|-------1-----------1-|-------1--------------|
G|--------------0-------|--0----------0-------|-------------0-------|--0----------0--------|
D|-----2-----------2----|----0-----------0----|----2-----------2----|----3-----------3-----|
A|--3--------3----------|---------------------|-0--------0----------|----------------------|
E|----------------------|-3--------3----------|---------------------|-1--------1-----------|

             Years leave quicker every time they come                 Remember when we were
           C                       G                     F                     F
e|----------------------|---------------------|---------------------|----------------------|
B|--------1-----------1-|-------1-----------1-|-------1-----------1-|-------1-----------1--|
G|--------------0-------|--0----------0-------|-------------0-------|--0----------0--------|
D|-----2-----------2----|----0-----------0----|----3-----------3----|----3-----------3-----|
A|--3--------3----------|---------------------|---------------------|----------------------|
E|----------------------|-3--------3----------|-1--------1----------|-1--------1-----------|

    young             ohohoh                 ohohoh                   Remember when we were
           C                       G                     F                     F
e|----------------------|---------------------|---------------------|----------------------|
B|--------1-----------1-|-------1-----------1-|-------1-----------1-|-------1-----------1--|
G|--------------0-------|--0----------0-------|-------------0-------|--0----------0--------|
D|-----2-----------2----|----0-----------0----|----3-----------3----|----3-----------3-----|
A|--3--------3----------|---------------------|---------------------|----------------------|
E|----------------------|-3--------3----------|-1--------1----------|-1--------1-----------|

   young             ohohoh                 ohohoh                   Remember when we were
           C                       G                     F                     F
e|----------------------|---------------------|---------------------|----------------------|
B|--------1-----------1-|-------1-----------1-|-------1-----------1-|-------1--------------|
G|---0----------0-------|--0----------0-------|-------------0-------|--0----------0--------|
D|-----2-----------2----|----0-----------0----|----3-----------3----|----3-----------3-----|
A|--3--------3----------|---------------------|---------------------|----------------------|
E|----------------------|-3--------3----------|-1--------1----------|-1--------1-----------|

         young       ohohoh                 ohohoh                  
         C                       G                     F                     F                C
e|----------------------|---------------------|---------------------|----------------------|--0-|
B|--------1-----------1-|-------1-------------|-------------1-------|---------1------------|--1-|
G|--------------0-------|--0----------0-------|-------0-----------0-|-0h2----------2-----0-|--0-|
D|-----2-----------2----|----0-----------0----|----3-----------3----|------3---------------|--2-|
A|--3--------3----------|---------------------|---------------------|----------------------|--3-|
E|----------------------|-3--------3----------|-1--------1----------|-1------------1-----1-|--x-|


************************************

| h   hammer-on
| p   pull-off
| x   Mute note

************************************

            
            
Suggest correction
Creating personal tab
Creating personal tab
You can edit any tab online and save it as your Personal.

You can edit, replace or remove any tab part or add personal notes – all changes will be seen only by you.

Personal tabs can be accessed anytime from any device, even offline.
Learn more »
comments
print report bad tab
5 comments total. Showing first comments.
+1 reply
cquiles97 80 Jun 27, 2016 11:40 AM

In the few bars before Verse 2 it should be:
Years leave quicker every time they come Remember when were
...young
C G F F
e------0---------|-----------------|-----------------|-------------
A----------3-----|-------3---1-----|-------3---1-----|-------------
D--------------0-|---0-----------0-|---0-----------0-|--(CORRECT)--
G----2-------2---|-----0-------0---|-----3-------3---|-------------
B-3------3-------|-----------------|-----------------|-------------
E----------------|-3-------3-------|-1-------1-------|-------------

C G F F
e------0---------|-----------------|---------------|-------------
A----------3-----|-------3---1-----|---------------|-------------
D--------------0-|---0-----------0-|---(CORRECT)---|--(CORRECT)--
G----2-------2---|-----0-------0---|---------------|-------------
B-3------3-------|-----------------|---------------|-------------
E----------------|-3-------3-------|---------------|-------------

0 reply
robbie.scott 10 Oct 28, 2016 06:11 PM, edited at 10:20 pm

sounds much better to me (at least playing along with the record) with a capo on 4 instead of 3. if playing along with the referenced you tube video, he clearly has a capo on 3 and this sounds fine to me.

guest
You may want to rate the tab now too:
select rating
Wanna post a correction for this tab? Suggest correction