Oops, an error
Loading. Please wait.

Young As The Morning Old As The Sea intro tab

version 1
version 1

Intro

Whole song

1,588 views 3 this week
no commentswrite comment
1 2 3 4 5
3 more votes to show rating
add to favorites
×
Save as Personal and add changes to this tab that will be seen only by you. Learn more ›
×
You can save this tab as Personal to edit and correct it or add notes. All changes will be seen only by you. Learn more »
launch autoscroll
font size
0
reset
how to read this tab
guitar tuner
edit
Autoscroll
slow
fast
+/-
esc
set tempo
stop
Original song : https://www.youtube.com/watch?v=_3L0K5jXJv4


Capo 6

e|--------------------------------------------------------------=|
B|--------------------------------------------------------------=|
G|---------5-5-5p4----------------------------------------------=| Repeat until 1:12
D|--------------------------------------------------------------=|
A|--0----------------0-2h-3h------------------------------------=|
E|--------------------------------------------------------------=|

and then it continues with at 1:12

e|---------------------------------------------------------------|
B|---------------------------------------------------------------|
G|----------------------0h2--5----2--------0h2--5----2-----------|
D|---------------------------------------------------------------|
A|-----0-2p-3p---------------------------------------------------|
E|---------------------------------------------------------------|

| p  pull-off

This is just the intro, and i think it's precice besides the  A|-----0-2p-3p part 
So, please someone use this and tab the rest, thank you

            
            
Suggest correction
Creating personal tab
Creating personal tab
You can edit any tab online and save it as your Personal.

You can edit, replace or remove any tab part or add personal notes – all changes will be seen only by you.

Personal tabs can be accessed anytime from any device, even offline.
Learn more »
Give kudos to tab author, rate the tab!
1 2 3 4 5
comments
print report bad tab
guest
You may want to rate the tab now too:
select rating
Wanna post a correction for this tab? Suggest correction