Oops, an error
Loading. Please wait.

Young As The Morning Old As The Sea tab

version 1
version 1

Whole song

5,491 views 33 this week
4 commentsread comments
1 2 3 4 5
x 10
add to favorites
×
Save as Personal and add changes to this tab that will be seen only by you. Learn more ›
×
You can save this tab as Personal to edit and correct it or add notes. All changes will be seen only by you. Learn more »
launch autoscroll
font size
0
reset
how to read this tab
guitar tuner
edit
Autoscroll
slow
fast
+/-
esc
set tempo
stop
Young As The Morning, Old As The Sea
Passenger
Capo 6


Intro/couplets

    Am             G                  Am             G
e|--------------------------------|--------------------------------|--
B|-------1---1---1-0-----0--------|---1---1---1---1-0-----0--------|--
G|------------------------------0-|------------------------------0-|--
D|-----2---2---2--------------0---|-----2---2---2--------------0---|--
A|-0-----------------------0h2----|-0-----------------------0h2----|--
E|-----------------3---3----------|-----------------3---3----------|--


    Am             G                  Am             G
e|--------------------------------|--------------------------------|--
B|-------1---1---1-0-----0--------|---1---1---1---1-0--------------|--
G|------------------------------0-|--------------------------------|--
D|-----2---2---2--------------0---|-----2---2---2------------------|--
A|-0-----------------------0h2----|-0------------------------------|--
E|-----------------3---3----------|-----------------3--------------|--


Refrain (Not sure about this, comments appreciated)

    F             F                  Am             G
e|--------------------------------|--------------------------------|--
B|------1---------------1---------|-------1---------0-----0--------|--
G|-0h2------2---2---2-------2---2-|---2-------2---2--------------0-|--
D|----3-------3-------3-------3---|-----2-------2--------------0---|--
A|-0------0-------0-------0-------|-0-------0---------------0h2----|--
E|--------------------------------|-----------------3---3----------|--
Suggest correction
Creating personal tab
Creating personal tab
You can edit any tab online and save it as your Personal.

You can edit, replace or remove any tab part or add personal notes – all changes will be seen only by you.

Personal tabs can be accessed anytime from any device, even offline.
Learn more »
comments
print report bad tab
4 comments total. Showing first comments.
0 reply
asdasddwdwdwd 17 Jan 03, 2016 11:09 AM

----------0------|
------0-------0--|
----2-------2----|
-3------3--------|

really not sure about this part, it doesnțt sound right to me

0 reply
Meortega 46 Jan 03, 2016 11:39 AM, edited at 04:39 pm

.

guest
You may want to rate the tab now too:
select rating
Wanna post a correction for this tab? Suggest correction