Oops, an error
Loading. Please wait.

Lemonade Tab

version 4
version 4

Whole song

by Passion
21,858 views 9 this week
1 commentread comment
1 2 3 4 5
x 4
add to favorites
launch autoscroll
font size
0
reset
how to read this tab
guitar tuner
×
Best way to learn
"Lemonade"
Autoscroll
slow
fast
+/-
esc
set tempo
stop
Author
Difficulty
Capo
intermediate
6th fret
Jeremy Passion-Lemonade
Transcribed by BigDrew
Guitar: Capo 6
Ukelele: Standard

I have seen a bunch of bad tabs on this song and it upset me quite a bit.
Sooo I decided to make my own. After all, how could you do that to such a beautiful tune!

So I am about 99% sure this is how the song goes, notice that when you listen, the last 
chord is diminished and does not resolve(mine is correct).
No idea what the chord names are (does it really matter though?)

The four chords are as follows:
e|-----4------2------2------1h4----|
B|-----2------1------0------3------|
G|-----2------2------1------4------|
D|-----2------1------2------0------|
A|-----x------x------x------x------|
E|-----x------x------x------x------|

When he slows down towards the end and does the faster chords it is (to the best of my knowledge):

 *my eyes, Shes ex---a--ctly whaaaat I neeeeeeeeeeyeeeeeeeeeaaaahhhhhh
e|-----1-------4-----4---2-------7--5---4---------------4-4-4-4-4-4-4-4-4----|
B|-----3-------3-----2---2-------5--5---5---------------2-2-2-2-2-2-2-2-2----|
G|-----4-------4-----2---2-------5--5---6---------------3-3-3-3-3-3-3-3-3----|
D|-----0-------0-----2---2-------5--5---4---------------4-4-4-4-4-4-4-4-4----|
A|-----x-------x-----x---x-------x--x---x---------------x-x-x-x-x-x-x-x-x----|
E|-----x-------x-----x---x-------x--x---x---------------x-x-x-x-x-x-x-x-x----|

Finish out with the first three chords (4222xx)(1212xx)(2012xx)...KA-BLAM, PURE SEX OF 
THE EARS

There you have it folks. Since this was first and foremost a ukelele song I omitted the 
a and E strings. If you want just play 0-2-2-2
on the a string for the main chords.

FINALLY:
*******Play this to your significant other and get guaranteed lovin'!******

************************************

| h  Hammer-on
| x  Dead note

************************************
Suggest correction
comments
print report bad tab
1 comment total.
0 reply
JG105Picking 10 May 05, 2014 09:17 PM

Spot on tab mate, thanx

guest
You may want to rate the tab now too:
select rating
Wanna post a correction for this tab? Suggest correction