Oops, an error
Loading. Please wait.

Eyes As Candles Bass Tab

613 views 3 this week
no commentswrite comment
1 2 3 4 5
accurate
x 2
add to favorites
launch autoscroll
font size
0
reset
guitar tuner
Tab Pro tools
  • play this tab
  • loop segment
  • change instrument
  • show fretboard
  • metronome
Autoscroll
slow
fast
+/-
esc
set tempo
stop
Contributor
Difficulty
novice
Eyes As Candles - Passion Pit 

Tabbed by: AlphaCohen 
E-mail: richmond.priester@yahoo.com

Tuning: Standard 

Intro 0:08   

G|-----------------------------------------------------------------|
D|-----------------------------------------------------------------|
A|-3-3---3-3-3---3-3-3---3-3-3---2-2-2---2-2-2---------------------|
E|-----------------------------------------------0-0-0---0-0-0---0-| 

G|-----------------------------------------------------------------|
D|-----------------0-0---0-0-0-------------------------------------|
A|-3-3---3-3-3---3---------------2-2-2---2-2-2---------------------| 
E|-----------------------------------------------0-0-0---0-0-0---0-| x2 

Verse 0:39, 1:39   

G|-----------------------------------------------------------------|
D|-----------------------------------------------------------------|
A|-3-3---3-3-3---3-3-3---3-3-3---2-2-2---2-2-2---------------------|
E|-----------------------------------------------0-0-0---0-0-0---0-| 

G|-----------------------------------------------------------------|
D|-----------------0-0---0-0-0-------------------------------------|
A|-3-3---3-3-3---3---------------2-2-2---2-2-2---------------------|
E|-----------------------------------------------0-0-0---0-0-0---0-| x2

Prechorus 1:09, 2:10
(not exact, but it uses fuzz distortion and 
sounds better as two octaves together)

G|-5---4---5------5---4---5--7-----5---4---5-----5---4---7-|
D|---------------------------------------------------------|
A|-3---2---3------3---2---3--5-----3---2---3-----3---2---5-|
E|---------------------------------------------------------| 

Chorus 1:24, 2:25 
(once again, distorted)

G|-5-----5-----4-----7-----5-----7-----4-----9-|
D|---------------------------------------------|
A|-3-----3-----2-----5-----3-----5-----2-----7-|
E|---------------------------------------------| (x2 at 2:25)  

After playing at 1:24 go immediately back to verse 
and play through the sequence again. when you reach 
2:25 play the chorus twice and go to bridge. :)

Bridge 2:56 
Take a break! :D 

Ending 3:26  
Simply play the chorus part again. 

G|-5-----5-----4-----7-----5-----7-----4-----9-|
D|---------------------------------------------|
A|-3-----3-----2-----5-----3-----5-----2-----7-|
E|---------------------------------------------| x2 

| /  slide up
| \  slide down
| h  hammer-on
| p  pull-off
| ~  vibrato
| +  harmonic
| x  Mute note

There you are, Eyes As Candles. :)
comments
We did not receive enough feedback on this tab! Please rate:
print report bad tab
1 2 3 4 5
I want to post or [tab]
guest
You may want to rate the tab now too:
select rating
Please do not post tabs as comments. Select "correction" instead!