Oops, an error
Loading. Please wait.

To Kingdom Come Tab

version 1
version 1

Whole song

12,695 views 30 this week
3 commentsread comments
1 2 3 4 5
excellent!
x 3
add to favorites
launch autoscroll
font size
0
reset
how to read this tab
guitar tuner
Autoscroll
slow
fast
+/-
esc
set tempo
stop
Help us to improve Ultimate-Guitar.com Take our survey!
×
Contributor
A great song from Passion Pit.  Best for 3 guitars, but you can play it however 
you want.  It probably could use some tweaking.  Enjoy!


INTRO:

Guitar 1:

e|------------|------------|------------|------------|
B|-----7h9----|-----7h9----|-----7h9----|-----7h9----|
G|---------9--|---------9--|---------9--|---------9--| x6
D|------------|------------|------------|------------|
A|------------|------------|--0~--------|--0~--------|
E|--0~--------|--0~--------|------------|------------|

Guitar 2: (wait until Guitar 1 plays riff twice before entering)

e|--------7~--|--9-----|--------7~--|--12-----|
B|--5-7-9-----|----9~--|--5-7-9-----|-----9~--|
G|------------|--------|------------|---------| x2
D|------------|--------|------------|---------|
A|------------|--------|------------|---------|
E|------------|--------|------------|---------|

Guitar 3:
E A
E A
E A
E A


VERSE 1:

Guitar 1:

e|------------|------------|------------|------------|
B|-----7h9----|-----7h9----|-----7h9----|-----7h9----|
G|---------9--|---------9--|---------9--|---------9--| x4
D|------------|------------|------------|------------|
A|------------|------------|--0~--------|--0~--------|
E|--0~--------|--0~--------|------------|------------|

Guitar 2: (nothing)

Guitar 3:

E               A               E
That's a frosty way to speak 
                  A                               E
To tell me how to live next to your potpourri
                 A                 E
All this talking pulls my teeth
              A    
I believed in you, so you'd believe in


CHORUS:

Guitar 1:

e|------------|------------|------------|------------|
B|-----7h9----|-----7h9----|-----7h9----|-----7h9----|
G|---------9--|---------9--|---------9--|---------9--| x4
D|------------|------------|------------|------------|
A|------------|------------|--0~--------|--0~--------|
E|--0~--------|--0~--------|------------|------------|

Guitar 2: (enter at *)

e|--------7~--|--9-----|--------7~--|--12-----|
B|--5-7-9-----|----9~--|--5-7-9-----|-----9~--|
G|------------|--------|------------|---------| x2
D|------------|--------|------------|---------|
A|------------|--------|------------|---------|
E|------------|--------|------------|---------|

Guitar 3:

E
Me. I cried out "God!"
                    A      
You dared me in the dark
                                   E
I felt a hush fall quietly from my spark.
                  A
*So now I hide in piles
                            E
Or princely orange peels
                     A
It feels the way you told me
                      E
How it'd always feel



VERSE 2:

Guitar 1:

e|------------|------------|------------|------------|
B|-----7h9----|-----7h9----|-----7h9----|-----7h9----|
G|---------9--|---------9--|---------9--|---------9--| x4
D|------------|------------|------------|------------|
A|------------|------------|--0~--------|--0~--------|
E|--0~--------|--0~--------|------------|------------|

e|-----------|-----------|
B|-----------|--4-4-4-4--|
G|--4-4-4-4--|-----------|
D|-----------|-----------|
A|-----------|-----------|
E|-----------|-----------|
("...pain.  It's a game!")

Guitar 2: (nothing)

Guitar 3:

E            A               E
Once I had a name to claim
                     A                              E
I scraped on all the walls like an orthodox saint
               A                   E
I wish for the same old things
                      A
That turned me inside out
                B     
Keeling in such pain.  It's a game!


CHORUS: (same)


VERSE 3:

E            A            E
Never have I ever been
                  A                        E
Clutching at your hair to cure you of some sin
                       A              E
But that's the kind of state I'm in
              A
Swimming in a pool of godly medicine


BRIDGE:

Guitar 1:

e|-----------|-----------|-----------|-----------|
B|-----------|-----------|-----------|-----------|
G|--4-4-4-4--|--4-4-4-4--|-----------|-----------|
D|-----------|-----------|--4-4-4-4--|--4-4-4-4--|  x2  
A|-----------|-----------|-----------|-----------|
E|-----------|-----------|-----------|-----------|

Guitar 2: (nothing)

Guitar 3:

B
Come, come hear it calling me, yelling like
   F#m
If ever there was someone who could make
                B
Things heavenly again
       F#m
Feel alright!


CHORUS: (same)
repeat twice


OUTRO: (similar to INTRO)

Guitar 1:

e|------------|------------|------------|------------|
B|-----7h9----|-----7h9----|-----7h9----|-----7h9----|
G|---------9--|---------9--|---------9--|---------9--| x6
D|------------|------------|------------|------------|
A|------------|------------|--0~--------|--0~--------|
E|--0~--------|--0~--------|------------|------------|

Guitar 2:

e|--------7~--|--9-----|--------7~--|--12-----|
B|--5-7-9-----|----9~--|--5-7-9-----|-----9~--|
G|------------|--------|------------|---------| x2
D|------------|--------|------------|---------|
A|------------|--------|------------|---------|
E|------------|--------|------------|---------|

Guitar 3:
play chorus chords and stop after Guitar 2 plays riff twice
Suggest correction new What's this?
You can suggest a correction to this tab. Community and Mods will review your correction and vote to approve or reject it.
comments
We did not receive enough feedback on this tab! Please rate:
print report bad tab
1 2 3 4 5
3 comments total.
0 reply
burndttoast 397 wrote on November 8 2009, 04:50 pm

This is also not "To Kingdom Come" but "Eyes as Candles."

+1 reply
74shoreline 78 wrote on December 6 2009, 03:56 pm

This IS "To Kingdom Come" ("Eyes as Candles" has a lyric that says "to kingdom come so slightly", which is why a lot of people mix them up), you can check their album or the video for this song if you're still convinced otherwise.

0 reply
bloxon13 10 wrote on June 20 2016, 09:12 pm

It is not A but C#m as the second chord for the entire song

e|------------|------------|------------|------------|
B|-----7h9----|-----7h9----|-----7h9----|-----7h9----|
G|---------9--|---------9--|---------9--|---------9--| x6
D|------------|------------|------------|------------|
A|------------|------------|------------|------------|
E|--0~--------|--0~--------|--9~--------|--9~--------|

guest
You may want to rate the tab now too:
select rating
Please do not post tabs as comments. Select "correction" instead!