Oops, an error
Loading. Please wait.

Mi Amor Imposible tab

29 views 1 this week
no commentswrite comment
1 2 3 4 5
3 more votes to show rating
add to favorites
×
Save as Personal and add changes to this tab that will be seen only by you. Learn more ›
×
You can save this tab as Personal to edit and correct it or add notes. All changes will be seen only by you. Learn more »
launch autoscroll
font size
0
reset
how to read this tab
guitar tuner
edit
Autoscroll
slow
fast
+/-
esc
set tempo
stop
    MI          LA                        MI
E |--------7-12-10-8-7-8-12---8-10-8-10-8-8-7---7-12--|
B |------8-----------------------------------11-------|
G |----9----------------------------------------------|
D |--9------------------------------------------------|
A |---------------------------------------------------|
E |---------------------------------------------------|
               SI7                       MI
E |--7-8-7-8-7-7---------11-----7---7-------------7---|
B |--------------10-9-10------10--10--10-10-8-7-8-----|
G |---------------------------------------------------|
D |---------------------------------------------------|
A |---------------------------------------------------|
E |---------------------------------------------------|
                LA                        MI
E |--------7-12-10-8-7-8-12---8-10-8-10-8-8-7---7-12--|
B |------8-----------------------------------11-------|
G |----9----------------------------------------------|
D |--9------------------------------------------------|
A |---------------------------------------------------|
E |---------------------------------------------------|
               SI7                       MI
E |--7-8-7-8-7-7---------11---------------------------|
B |--------------10-9-10------8-10-8-7-8--------------|
G |--------------------------------------9------------|
D |---------------------------------------------------|
A |---------------------------------------------------|
E |---------------------------------------------------|

MI                                                          SI7
Crees que por ser tu amante no puedes llevarme por donde tu vas
                                                        MI
y que tengo que ocultarme como un fugitivo en la oscuridad
MI7                  LA   RE                  SOL
Todo empezo como un juego mas descubri que te quiero
MI                LA                SI7                 MI
y como tu no eres libre mi amor imposible hoy te digo adios
MI                                                  SI7
Se que no sera tan facil poder arrancarte de mi corazon
                                                            MI
porque dejo entre tus brazos un poco del alma que nadie te dio
MI7                                                    LA
Para ti sera sencillo echarme al olvido y volver a empezar
                     MI                    SI7
y solo he sido en tu vida la historia escondida
                    MI
que hoy llega al final
LA                   MI                    SI7
y solo he sido en tu vida la historia escondida
                    MI
que hoy llega al final

      " SE REPITE ABSOLUTAMENTE TODO Y LUEGO ESTRIBILLO DE ABAJO "

    MI          LA                        MI
E |--------7-12-10-8-7-8-12---8-10-8-10-8-8-7---7-12--|
B |------8-----------------------------------11-------|
G |----9----------------------------------------------|
D |--9------------------------------------------------|
A |---------------------------------------------------|
E |---------------------------------------------------|
               SI7                       MI
E |--7-8-7-8-7-7---------11-----7---7-------------7---|
B |--------------10-9-10------10--10--10-10-8-7-8-----|
G |---------------------------------------------------|
D |---------------------------------------------------|
A |---------------------------------------------------|
E |---------------------------------------------------|
                                 (SE REPITE 3 VECES PERO
                                  EN LA TERCERA SE VA BAJANDO
                                                   EL VOLUMEN)

            
            
Suggest correction
Creating personal tab
Creating personal tab
You can edit any tab online and save it as your Personal.

You can edit, replace or remove any tab part or add personal notes – all changes will be seen only by you.

Personal tabs can be accessed anytime from any device, even offline.
Learn more »
Give kudos to tab author, rate the tab!
1 2 3 4 5
comments
print report bad tab
guest
Wanna post a correction for this tab? Suggest correction