Oops, an error
Loading. Please wait.

A Marte tab

version 2
version 2

Whole song

53 views 1 this week
no commentswrite comment
1 2 3 4 5
3 more votes to show rating
add to favorites
×
Save as Personal and add changes to this tab that will be seen only by you. Learn more ›
×
You can save this tab as Personal to edit and correct it or add notes. All changes will be seen only by you. Learn more »
launch autoscroll
font size
0
reset
how to read this tab
guitar tuner
edit
Autoscroll
slow
fast
+/-
esc
set tempo
stop
bueno aki les dejo mi primer rolita
ojala les guste, yo se q no esta prefecta pero hice
mi mejor esfuerzo saludos a toda la comunidad
de la cuerda

/=slide
X = no se toca esa cuerda
Intro

Riff 1

-7-7-7-7- y luego ?2-2-2-2-
-7-7-7-7-         -2-2-2-2-
-x-------         -x-------
-x-------         -x-------
-x-------         -x-------
-x-------         -x-------
eso va al principio ahí mídanle las
veces hasta q llegue a la sig. parte q es cuando dice

?buscando la unica razon... se toca esto

riff2

-x-------------7-7-7-7-7-7  y se deja sonar
-3-3-5-7-5-3-0-7-7-7-7-7-7
-x------------?-----------
-x------------?-----------
-x------------------------

?mirame buscandote... en esa parte fijense bien en donde va esto

riff3

------2---2---2---0---0---0
-x-------------------------
-2/4/2-4/2-4/2-2/4-4/2-4/2- x2
-x-------------------------
-x-------------------------
-x-------------------------

y luego ? q me tienen depresiones toca
el riff 2

coro
?Mirame energia soy..... mídanle bien esa parte q se toca esto

riff4

----2-2-3-3-5-5
-3-3-----------
-x------------- x8
-x-------------
-x-------------
-x-------------
hasta q entra la parte 2ª del coro ?te lo dije te lo dije..
se toca esto q es casi = a lo anterior solo cambia algo

riff 5

----2/3-5-3-2-      -7-7-7-7-7-7
-3-3---------3      -7-7-7-7-7-7
-x------------  x8  -x----------
-x------------      -x---------- dejando sonar
-x------------      -x----------
-x------------      -x----------

hasta q llega el solo

--------------------2-5-7-5
-3-2------------0----------
-----2-2-2-2-0-2?3-2-------
-x-------------------------
-x-------------------------
-x-------------------------

?tengo un dolor externo...

se toca el riff 1

?ya no existe compasión....

se toca el riff 2

?mirame energia soy...

se toca riff 4 x8

?te lo dije te lo dije....

se toca riff 5 x8

y luego

-7-7-7-5-7-7-5-7-5/10-7/14-14-14-14-12-10-12/14-14-14-14-12-10
-7-7-7-5-7-7-5-7-5/10-7/14-14-14-14-12-10-12/14-14-14-14-12-10
-x------------------------------------------------------------
-x------------------------------------------------------------
-x------------------------------------------------------------
-x------------------------------------------------------------

eso se toca 2 veces


Y luego cuando dicen ?lalalalalalal... se toca
No se exactamente cuantos tiempos son en cada nota asi q midanle

-7-7-7-7-7-5-5-5-5-5-7-7-7-7-7-2-2-2-2-2-0-0-0-0-0
-7-7-7-7-7-5-5-5-5-5-7-7-7-7-7-2-2-2-2-2-0-0-0-0-0
-x------------------------------------------------  x2
-x------------------------------------------------
-x------------------------------------------------
-x------------------------------------------------

y luego en el final de la canción solo es checar los coros

cuando es ?mirame energia soy ...

se toca
 el riff 4

y cuando es ?t lo dije te lo dije .... se toca el riff 5

y acaba asi

-14-14-14
-14-14-14
-x-------
-x-------  dejando sonar
-x-------
-x-------

            
            
Suggest correction
Creating personal tab
Creating personal tab
You can edit any tab online and save it as your Personal.

You can edit, replace or remove any tab part or add personal notes – all changes will be seen only by you.

Personal tabs can be accessed anytime from any device, even offline.
Learn more »
Give kudos to tab author, rate the tab!
1 2 3 4 5
comments
print report bad tab
guest
Wanna post a correction for this tab? Suggest correction