Oops, an error
Loading. Please wait.

Burning Me Inside tab

52 views 3 this week
no commentswrite comment
1 2 3 4 5
3 more votes to show rating
add to favorites
×
Save as Personal and add changes to this tab that will be seen only by you. Learn more ›
×
You can save this tab as Personal to edit and correct it or add notes. All changes will be seen only by you. Learn more »
launch autoscroll
font size
0
reset
how to read this tab
guitar tuner
edit
Autoscroll
slow
fast
+/-
esc
set tempo
stop
bueno pues aqui les dejo esta tab para que la chequen
la verdad es que no se la letra de esta cancion
y la saque de un video en vivo aqui les dejo el url pa que lo vean


en el intro namas es un Fmaj7 cambiando un F

y luego un C

y asi es toda la cancion

F y C

al principio el Adrian hace estos dos pequeños adornos

e----12---     Y ESTE e----12---
B-------13            B-------13
G-10------            G---------
D---------            D-10------
A---------            A---------
E---------            E---------

LOS HACE COMO 3 O 4 VECES

y el solO no es asi exactamente
yo lo toco asi y suena bien
pero vean el video para que se den una idea

e----17-13-15-12-8-7
B-------------------
G-------------------
D-12----------------
A-------------------
E-------------------

e----17-13-15-12-8
B-----------------
G-----------------
D-12--------------
A-----------------
E-----------------

e-10-10-10-8---10-10-10-8-----8-10-/12-/10-8------8-10-/12-/10-8-
B-------------------------8-10---------------8-10----------------
G----------------------------------------------------------------
D----------------------------------------------------------------
A----------------------------------------------------------------
E----------------------------------------------------------------

hasta que llega a esto que yo lo toco rapido muy rapido

e-15 luego el traste 20 luego el 15 el 12 el 15 y el 20
esta de arriba es la cuerda mas delgada

y de nuevo vamos con el F y C

y termina la rola

de todos modos cualquier duda hay ta mi correo


            
            
Suggest correction
Creating personal tab
Creating personal tab
You can edit any tab online and save it as your Personal.

You can edit, replace or remove any tab part or add personal notes – all changes will be seen only by you.

Personal tabs can be accessed anytime from any device, even offline.
Learn more »
Give kudos to tab author, rate the tab!
1 2 3 4 5
comments
print report bad tab
guest
Wanna post a correction for this tab? Suggest correction