Oops, an error
Loading. Please wait.

Cierrro Los Ojos chords

22 views 1 this week
no commentswrite comment
1 2 3 4 5
3 more votes to show rating
add to favorites
×
Save as Personal and add changes to this tab that will be seen only by you. Learn more ›
×
You can save this tab as Personal to edit and correct it or add notes. All changes will be seen only by you. Learn more »
launch autoscroll
font size
0
reset
transpose
0
reset
simplify chords
display chords
guitar tuner
edit
Autoscroll
slow
fast
+/-
esc
set tempo
stop
Strumming
There is no strumming pattern for this song yet. and get +5 IQ
Intro:
|-----------------------------------------------------------------------|
|--13-13-13-13-13-13--12-12-12-12--13-13-13-13-13-13--12-12-12-12-12-12-|
|-----------------------------------------------------------------------|
|-----------------------------------------------------------------------|
|-----------------------------------------------------------------------|
|-----------------------------------------------------------------------|

|-----------------------------------------------------------------------|
|-------------12-12-12-12--13-13-13-13-13-13--15-15-15-15-12-12-12-12---|
|-14-14-14-14-----------------------------------------------------------|
|-----------------------------------------------------------------------|
|-----------------------------------------------------------------------|
|-----------------------------------------------------------------------|

|-----------------------------------------------------------------------|
|-12-13-13-13-13--------------------------------------------------------|
|---------------14-14-14-14-14------------------------------------------|
|-----------------------------------------------------------------------|
|-----------------------------------------------------------------------|
|-----------------------------------------------------------------------|

Am                       Gm      Dm
no te dilates con lo que ibas a hacer
Am                   Gm     Dm
me prometiste que no ibas a volver
Am                   Gm         Dm
y con tus gritos de histeria infantil
Am                    Gm      Dm
lo que te hice parece no tener fin

Am                  Gm        Dm
una mentira y para q dices q no
Am                  Gm        Dm
me sumergiste en un vaso de control
Am                  Gm      Dm
deja que nasca una capa temporal
Am             Gm       Dm
entre los dos entre los dos

coro:
Am           Dm  E6   Am         Dm
y cierro los ojos y lo primero q veo
 E6      Am   Bm  Cm  Dm                    x2
son los tuyos

solo: Am,Gm,Dm x8

Am                       Gm        Dm
pasa el tiempo y todo se siente normal
Am                          Gm      Dm
pero en mi pecho tu silencio duele mas
Am                   Gm        Dm
y con tus gritos de estado bipolar

Am                       Gm      Dm
lo que no hice fue ponerme a llorar

coro:
Am           Dm E6     Am        Dm
y cierro los ojos y lo primero q veo
E6      Am  Bm  Cm Dm                     x3
son los tuyos

Am,Gm,Dm x4
Suggest correction
Creating personal tab
Creating personal tab
You can edit any tab online and save it as your Personal.

You can edit, replace or remove any tab part or add personal notes – all changes will be seen only by you.

Personal tabs can be accessed anytime from any device, even offline.
Learn more »
Give kudos to tab author, rate the tab!
1 2 3 4 5
comments
print report bad tab
guest
Wanna post a correction for this tab? Suggest correction