Oops, an error
Loading. Please wait.

Cierrro Los Ojos tab

34 views 1 this week
no commentswrite comment
1 2 3 4 5
3 more votes to show rating
add to favorites
×
Save as Personal and add changes to this tab that will be seen only by you. Learn more ›
×
You can save this tab as Personal to edit and correct it or add notes. All changes will be seen only by you. Learn more »
launch autoscroll
font size
0
reset
how to read this tab
guitar tuner
edit
Autoscroll
slow
fast
+/-
esc
set tempo
stop
Intro: Am G Dm

Am                   G          Dm
no te dilates con lo que ibas a hacer
Am                   G      Dm
me prometiste que no ibas a volver
Am                   G          Dm
y con tus gritos de histeria infantil
Am                    G       Dm
lo que te hice parece no tener fin   No!!

|--------------------------------------------------------------------|
|--------------------------------------------------------------------|
|--------------------------------------------------------------------|
|---------------------5-------3-----------------------3-------3^4----|
|-----3-------3---5-7---7-3-5---5-----3-------3^4-5-7---7-3-5--------|
|-3-5---5-3-5---5-----------------3-5---5-3-5------------------------|


|--------------------------------------------------------------------|
|--------------------------------------------------------------------|
|--------------------------------------------------------------------|
|---------------------5-------3^4--------------------3---------------|
|-----3-------3---5-7---7-3-5---------3-------3--5-7---7-3-5---------|
|-3-5---5-3-5---5-----------------3-5---5-3-5----------------5-3-5---|

Am                  G         Dm
una mentira y para q dices q no
Am                  G         Dm
me sumergiste en un vaso de control
Am                  G       Dm
deja que nasca una capa temporal
Am             G        Dm
entre los dos entre los dos

coro:
Dm           B5  C   Am         Dm
y cierro los ojos y lo primero q veo
 B5      Am   B5  C5  D5                    x2
son los tuyos

solo: Am,G,Dm x8

Am                       G         Dm
pasa el tiempo y todo se siente normal
Am                          G       Dm
pero en mi pecho tu silencio duele mas
Am                   G         Dm
y con tus gritos de estado bipolar

Am                       G       Dm
lo que no hice fue ponerme a llorar

coro:
Dm           B5  C   Am         Dm
y cierro los ojos y lo primero q veo
 B5      Am   B5  C5  D5                    x2
son los tuyos

 Am,G,Dm x8

            
            
Suggest correction
Creating personal tab
Creating personal tab
You can edit any tab online and save it as your Personal.

You can edit, replace or remove any tab part or add personal notes – all changes will be seen only by you.

Personal tabs can be accessed anytime from any device, even offline.
Learn more »
Give kudos to tab author, rate the tab!
1 2 3 4 5
comments
print report bad tab
guest
Wanna post a correction for this tab? Suggest correction