Oops, an error
Loading. Please wait.

Esto Es bass

42 views 1 this week
no commentswrite comment
1 2 3 4 5
3 more votes to show rating
add to favorites
×
Save as Personal and add changes to this tab that will be seen only by you. Learn more ›
×
You can save this tab as Personal to edit and correct it or add notes. All changes will be seen only by you. Learn more »
launch autoscroll
font size
0
reset
guitar tuner
edit
Autoscroll
slow
fast
+/-
esc
set tempo
stop
hola yo soy amigo de oscar el bajista de pastilla y pues toco el bajo
y el es mi mastro y amigo y las canciones son lo q tocan ellos

intro
riff 1
g-------------!
d-------------!
a-------------!
e-2-4-2-4-2-4-!
riff 1
g-----------------------!
d-----------------------!
a-44---444--44-444------!
e----4----4---4---4-----!

verso
g----------------------------------------!
d----------------------------------------!
a-55555555555-222222222-000-222-00222----!
e----------------------------------------!

coro
brillo como el amaneser
g---------------------------------!
d---------------------------------!
a-777-7--666-6--555---------------!
e----7-7----7-7------5-7-555-555-5!

parte lenta
g-----------------------!
d-----------------------!
a----5--45--32--12-222--!
e-----------------------!

esto es todo lo que lleva nadamas ven los tiempos es muy facil

            
            
Suggest correction
Creating personal tab
Creating personal tab
You can edit any tab online and save it as your Personal.

You can edit, replace or remove any tab part or add personal notes – all changes will be seen only by you.

Personal tabs can be accessed anytime from any device, even offline.
Learn more »
Give kudos to tab author, rate the tab!
1 2 3 4 5
comments
print report bad tab
guest
Wanna post a correction for this tab? Suggest correction