Oops, an error
Loading. Please wait.

Rasga Mi Piel chords

version 2
version 2

Whole song

41 views 1 this week
no commentswrite comment
1 2 3 4 5
3 more votes to show rating
add to favorites
×
Save as Personal and add changes to this tab that will be seen only by you. Learn more ›
×
You can save this tab as Personal to edit and correct it or add notes. All changes will be seen only by you. Learn more »
launch autoscroll
font size
0
reset
transpose
0
reset
display chords
guitar tuner
edit
Autoscroll
slow
fast
+/-
esc
set tempo
stop
Strumming
There is no strumming pattern for this song yet. and get +5 IQ
Intro: Guitarra con Delay

E--5h7--7--7--5-----------------------------------------
B-------------------7h8--8--8--7-----0------------------
G----------------6----------------7---------------------
D-------------------------------------------------------
A-------------------------------------------------------
E-------------------------------------------------------

E--5s7--7--7--9-----------------------------------------
B----------------10--7h8--8--8--7-----0-----------------
G----------------------------------7--------------------
D-------------------------------------------------------
A-------------------------------------------------------
E-------------------------------------------------------

 Em        D   Em             Bm
Esta realidad ya no es de los dos
Em          D
ahora somos tres
Em            Bm
dime que sientes hoy

      --->Coro<---

   Bm                F#m
Rasga mi piel y prueba mi sangre
   Em               Bm
Sientete viva ya no te tardes
   Bm                F#m
Piensa en mi soy tu destino
        Em
Recoge mis miedos
        Bm
y haz un camino
  Em                           F#m
Te puedo cubrir con llagas la memoria
  Em                           F#m
O puedo hacer que llore tu historia
  Em                              F#m
Mi mundo estallo de pronto al conocerte
     Em                            F#m
y lo quieras o no tu eres mi buena suerte


   Bm                F#m
Rasga mi piel y prueba mi sangre
   Em               Bm
Sientete viva ya no te tardes
   Bm                F#m
Piensa en mi soy tu destino
        Em
Recoge mis miedos
        Bm
y haz un camino


[(Guitarra Delay)--> Con el que se comienza]

 Em        D
Si eres feliz
 Em         Bm
Yo me siento bien
 Em        D
Yo te extraÑare
 Em         Bm
Siempre te extraÑare

      --->Coro<---

   Bm                F#m
Rasga mi piel y prueba mi sangre
   Em               Bm
Sientete viva ya no te tardes
   Bm                F#m
Piensa en mi soy tu destino
        Em
Recoge mis miedos
        Bm
y haz un camino
  Em                           F#m
Te puedo cubrir con llagas la memoria
  Em                           F#m
O puedo hacer que llore tu historia
  Em                              F#m
Mi mundo estallo de pronto al conocerte
     Em                            F#m
y lo quieras o no tu eres mi buena suerte

 G
Corta mi piel y haz tu camino
 F#m
Corta mi piel y haz tu camino
 G
Corta mi piel y haz tu camino
 F#m                       G      A
Corta mi piel y haz tu camino


   Bm                F#m
Rasga mi piel y prueba mi sangre
   Em               Bm
Sientete viva ya no te tardes        x2
   Bm                F#m
Piensa en mi soy tu destino
        Em
Recoge mis miedos
        Bm
y haz un camino

  Final:
   Em   D    Em   Bm
E--7----5----3----2------
B--8----7----5----3------
G--9----7----4----4------
D------------------------
A------------------------
E------------------------

            
            
Suggest correction
Creating personal tab
Creating personal tab
You can edit any tab online and save it as your Personal.

You can edit, replace or remove any tab part or add personal notes – all changes will be seen only by you.

Personal tabs can be accessed anytime from any device, even offline.
Learn more »
Give kudos to tab author, rate the tab!
1 2 3 4 5
comments
print report bad tab
guest
Wanna post a correction for this tab? Suggest correction