Oops, an error
Loading. Please wait.

Secreto tab

8 views 1 this week
no commentswrite comment
1 2 3 4 5
3 more votes to show rating
add to favorites
×
Save as Personal and add changes to this tab that will be seen only by you. Learn more ›
×
You can save this tab as Personal to edit and correct it or add notes. All changes will be seen only by you. Learn more »
launch autoscroll
font size
0
reset
how to read this tab
guitar tuner
edit
Autoscroll
slow
fast
+/-
esc
set tempo
stop
Intro:
Am, G/B, C x4

|-5-5--5--5-5-7-8-------|
|-5-5--5--5-5-5-5-------|
|-5-5--5--5-5-5-5-------|
|-----------------------|
|-----------------------|
|-----------------------|

Am         G         F             Dm
Quisiera decir lo que siento lo que siento
Am         G        F         Dm      E
Quisiera decir y no puedo ya no puedo

Repites intro x2

Am          G       F             Dm
Quisiera gritar lo q siento lo que siento
Am          G      F           Dm     E
Quisiera morir y no puedo tengo miedo

Coro:

Am                       G
Si me aleje fue para no saber
F                       Dm
Y yo no se si tu sientes asi
Am                     G
Si regrese fue para no pensar
F                       Dm    E
Y yo no se si tu piensas asi

Puente: ah oh oh

|-5-5--5--5-5-7-8-------|
|-5-5--5--5-5-5-5-------|
|-5-5--5--5-5-5-5-------|x2
|-----------------------|
|-----------------------|
|-----------------------|

|-7-7--5--7-7-7-7-------|
|-5-5--5--5-5-5-5-------|
|-4-4--4--4-4-4-4-------|
|-----------------------|
|-----------------------|
|-----------------------|

|-5-5--5--5-5-7-8-------|
|-5-5--5--5-5-5-5-------|
|-5-5--5--5-5-5-5-------|
|-----------------------|
|-----------------------|
|-----------------------|

Am           G       F            Dm
Quiero acariciar tus palabras tus palabras
Am         G     F
Mi secreto es el pensar en ti
Dm               E
Siempre pienso en ti

Coro:

Am                       G
Si me aleje fue para no saber
F                       Dm
Y yo no se si tu sientes asi
Am                     G
Si regrese fue para no pensar
F                       Dm    E
Y yo no se si tu piensas asi

Am                       G
Si me aleje fue para no saber
F                       Dm   E
Y yo no se si tu sientes asi
Am                     G
Si regrese fue para no pensar
F                       Dm    E
Y yo no se si tu piensas asi

Final: ah uoh oh           Am

|-5-5--5--5-5-7-8-------|
|-5-5--5--5-5-5-5-------|
|-5-5--5--5-5-5-5-------|x2
|-----------------------|
|-----------------------|
|-----------------------|

            
            
Suggest correction
Creating personal tab
Creating personal tab
You can edit any tab online and save it as your Personal.

You can edit, replace or remove any tab part or add personal notes – all changes will be seen only by you.

Personal tabs can be accessed anytime from any device, even offline.
Learn more »
Give kudos to tab author, rate the tab!
1 2 3 4 5
comments
print report bad tab
guest
Wanna post a correction for this tab? Suggest correction