Oops, an error
Loading. Please wait.

En El Hospicio tab

294 views 3 this week
no commentswrite comment
1 2 3 4 5
3 more votes to show rating
add to favorites
×
Save as Personal and add changes to this tab that will be seen only by you. Learn more ›
×
You can save this tab as Personal to edit and correct it or add notes. All changes will be seen only by you. Learn more »
launch autoscroll
font size
0
reset
how to read this tab
guitar tuner
edit
Autoscroll
slow
fast
+/-
esc
set tempo
stop
Con transportador en 2. Para facilitar la existencia.


--------------------------------------------------
----------1-----------1------------1--------------
-------2------------------------2-----2-----------   Repetir
----2--------------2---------0--------------------   2 veces
-0------------------------------------------------
----------------3---------2-----------------1p0---

Esforzato
-------------------------------------
----------1-------------1------------
-------2----2--------2-----2-----2---
----2-------------2-----------2------
-0-----------------------------------
----------------3--------------------

Más esforzato!!
-------------------------------------
----------1-----------1--------------
-------2-----2-----2-----2-----2----- MI
----0-----------0-----------0--------
-------------------------------------
-2-----------------------------------


(los acordes siguen siendo
con el tema transportado a Lam)

       LAm         DO
Quiero atrapar el sol
    FA           MI
en una pared desierta.
       LAm             DO
Me siento tan libre que
           FA        MI
hasta me ahoga esa idea.
         LAm          DO
Me hace mal la realidad
      FA                  MI
de saber que el perro es perro
        LAm
y nada más.

        LAm          DO
Quiero descolgar al sol,
       FA              MI
chapalear entre las hojas,
     LAm        DO
estirar mi soledad,
        FA         MI
correr entre los pasillos
      LAm         DO
y buscar la realidad
           FA           MI
de que el perro no sea perro
        LA
y nada más.

RE   DO   LA
Encierro real;
RE   DO     LA
claustro de barro.
RE   DO   LA
Sólo sombras,
RE  DO MI   LAm FA MI LAm
sombras.

base del solo:
(LAm SOL FA MI) x4

    LAm              DO
Porque supe al despertar
          FA          MI
que mis sueños eran ciertos
       LAm       DO
y mi propia realidad
     FA         DO
superó la fantasía
       LAm           DO
de ser vos la fuerza que
       FA        MI
de la nada hizo vida
         LAm    FA  MI
y me la dio.

   LAm              DO
Porque me dejan pensar
     FA             MI
en toda esa gente humana
       LAm         DO
y después, para jugar,
         FA        MI
hasta me atan a mi cama.

      LAm          DO
Puedo ver la realidad
          FA          MI
de que el perro sea perro
        LAm
y nada más.


Intro y fin.


Muy buen grupo pastoral. Y por suerte
la mayoría de las cosas de este grupo
en esta página estan muy bien sacadas.
Saludos.

            
            
Suggest correction
Creating personal tab
Creating personal tab
You can edit any tab online and save it as your Personal.

You can edit, replace or remove any tab part or add personal notes – all changes will be seen only by you.

Personal tabs can be accessed anytime from any device, even offline.
Learn more »
Give kudos to tab author, rate the tab!
1 2 3 4 5
comments
print report bad tab
guest
Wanna post a correction for this tab? Suggest correction