Oops, an error
Loading. Please wait.

Heartbreaker Tab

version 1
version 1

Whole song

Interactive

Video

145,209 views 213 this week
19 commentsread comments
1 2 3 4 5
accurate
x 44
add to favorites
launch autoscroll
font size
0
reset
how to read this tab
guitar tuner
Autoscroll
slow
fast
+/-
esc
set tempo
stop
Help us to improve Ultimate-Guitar.com Take our survey!
×
Author
immyjay 483
[Intro]

distortion
                                 x2   
e|---|----------------------------|-----|-----------------------|
B|---|----------------------------|-----|-----------------------|
G|---|----------------------------|-----|-----------------------|
D|6--|---------------------------6|-x-2-|-----------------------|
A|6--|-3-3-3-3-3-3-3-3-3-3-3-3-3-6|-----|3-3-3-3-3-3-3-3-3-3-3-3|
E|4--|-1-1-1-1-1-1-1-1-1-1-1-1-1-4|-----|1-1-1-1-1-1-1-1-1-1-1-1|
       p.m---------------------|         p.m.------------------|                


[Verse]
                                                                                      
 "Your love..."
e|------------------------------------------------------------|
B|------------------------------------------------------------|
G|--------------------------------------------------------5--8|
D|----------------8-8-8-8-8-8-8-8-6-6-6-6-6-6-6-6-3-3-3-3-5--8|  x2
A|3-3-3-3-3-3-3-3-6-6-6-6-6-6-6-6-4-4-4-4-4-4-4-4-1-1-1-1-3--6|
E|1-1-1-1-1-1-1-1---------------------------------------------|
  p.m.--------------------------------------------------|                       


[Bridge]

 "You're the right..."                                                     

e|--------------------------------|
B|--------------------------------|
G|10--8--6----3-------------------|
D|10--8--6----3----5-5-5-5-5-5-5-5|
A|8---6--4----1----3-3-3-3-3-3-3-3|
E|--------------------------------|
                   p.m.----------|                                                           

e|------------------------------------------|
B|------------------------------------------|
G|10--8--6----3----------------------------5|
D|10--8--6----3----5-5-5-5-5-5-5-5-5-5-5-5-5|
A|8---6--4----1----3-3-3-3-3-3-3-3-3-3-3-3-3|
E|------------------------------------------|
                   p.m.------------------|                                     


[Chorus]

 "You're a heartbreaker..."                      

e|------------------------------|
B|------------------------------|
G|---------------3-3---5---6---5|
D|3-3---5--6-6---3-3---5---6---5| x2
A|3-3---5--6-6---1-1---3---4---3|
E|1-1---3--4-4------------------|
                                                                           

[Instrumental]

e|---|----------------------------|-----|-----------------------|
B|---|----------------------------|-----|-----------------------|
G|---|----------------------------|-----|-----------------------|
D|6--|---------------------------6|-x-2-|-----------------------|
A|6--|-3-3-3-3-3-3-3-3-3-3-3-3-3-6|-----|3-3-3-3-3-3-3-3-3-3-3-3|
E|4--|-1-1-1-1-1-1-1-1-1-1-1-1-1-4|-----|1-1-1-1-1-1-1-1-1-1-1-1|
       p.m---------------------|         p.m.------------------|  


[Verse]
                                                                                     
 "Your love..."
e|------------------------------------------------------------|
B|------------------------------------------------------------|
G|--------------------------------------------------------5--8|
D|----------------8-8-8-8-8-8-8-8-6-6-6-6-6-6-6-6-3-3-3-3-5--8|  x2
A|3-3-3-3-3-3-3-3-6-6-6-6-6-6-6-6-4-4-4-4-4-4-4-4-1-1-1-1-3--6|
E|1-1-1-1-1-1-1-1---------------------------------------------|
  p.m.--------------------------------------------------|                       


[Bridge]

 "You're the right..."                                                     

e|--------------------------------|
B|--------------------------------|
G|10--8--6----3-------------------|
D|10--8--6----3----5-5-5-5-5-5-5-5|
A|8---6--4----1----3-3-3-3-3-3-3-3|
E|--------------------------------|
                   p.m.----------|                                                           

e|------------------------------------------|
B|------------------------------------------|
G|10--8--6----3----------------------------5|
D|10--8--6----3----5-5-5-5-5-5-5-5-5-5-5-5-5|
A|8---6--4----1----3-3-3-3-3-3-3-3-3-3-3-3-3|
E|------------------------------------------|
                   p.m.------------------|                                     


[Chorus]

 "You're a heartbreaker..."                      

e|------------------------------|
B|------------------------------|
G|---------------3-3---5---6---5|
D|3-3---5--6-6---3-3---5---6---5| x2
A|3-3---5--6-6---1-1---3---4---3|
E|1-1---3--4-4------------------|


[Interlude]

e|------------------------------|
B|------------------------------|
G|8---10--------------------8--7|
D|8---10--10---8---6--5--3--8--7|
A|6---8---10---8---6--5--3--6--5|
E|--------8----6---4--3--1------|
 
e|---------------------------------------|
B|---------------------------------------|
G|8---10---------------------------------|
D|8---10--10---8---6-5---------------5-3-|
A|6---8---10---8-------8-6-4-3---3-4-----|
E|--------8----6---------------6---------|
 
e|---------------------------|
B|---------------------------|
G|----5~----5~-----5~-----5~-|
D|5-5----5-5----5-5----5-5---|
A|3-3----3-3----3-3----3-3---|
E|---------------------------|
  p.m.   p.m.   p.m.   p.m.

e|---------------------------------|
B|---------------------------------|
G|---------------------------------|
D|5-5-5-5-5-5-5-5-5-5-5-5-5-5-5-5--|
A|3-3-3-3-3-3-3-3-3-3-3-3-3-3-3-3--|
E|---------------------------------|
  p.m.--------------------------|                                               


 "You're the right kind..."                             

e|-------------------------------------|
B|-------------------------------------|
G|10---5--6----------------------------|
D|10---5--6----6--8--------------------|
A|8----3--4----6--8----10-8--6----5--3-|
E|-------------4--6----8--6--4----3--1-|  

e|--------------------------------------------------------------------|
B|--------------------------------------------------------------------|
G|10---5--6-----------------------------------------------------------|
D|10---5--6----6--8----10---------------------------------------------|
A|8----3--4----6--8----10-10-10-10-10-10-10-10-10-10-10-10-10-10-10-10|
E|-------------4--6----8--8--8--8--8--8--8--8--8--8--8--8--8--8--8--8-|
                       p.m.------------------------------                         



*****************************************

 | b    bend up
 | r    release bend
 | ~    vibrato
 | /    slide up
 | \    slide down
 | *    trill
 | tr   tremelo pick
 | p.m. palm mute
 | x    muffled string or note
 | h    hammer on
 | p    pull off

*****************************************
Suggest correction
What's this?
You can suggest a correction to this tab. Community and Mods will review your correction and vote to approve or reject it.
comments
print report bad tab
19 comments total. Showing first comments.
+5 reply
bassplayer_16 26 wrote on December 25 2004, 12:00 am

hahaa ya sure the last solos a waste of time..u prolly just suck so much u cant figure out wut it is

+6 reply
kryptonite15 19 wrote on February 27 2006, 08:59 pm

exactly, dude, dont disrespect shit if even your highness cant play it...

+8 reply
alliwant 1,155 wrote on June 15 2006, 06:28 am

If you're going to tab a song, try to do all of it even if yu don't like it. Don't deny other people. I agree with bassplayer and kryptonite on this one. Twat.

guest
You may want to rate the tab now too:
select rating
Please do not post tabs as comments. Select "correction" instead!