Oops, an error
Loading. Please wait.

Hell Is For Children bass

version 1
version 1

Whole song

Interactive

4,199 views 21 this week
no commentswrite comment
1 2 3 4 5
x 5
add to favorites
×
Save as Personal and add changes to this tab that will be seen only by you. Learn more ›
×
You can save this tab as Personal to edit and correct it or add notes. All changes will be seen only by you. Learn more »
launch autoscroll
font size
0
reset
guitar tuner
backing track
0:00
0:00
edit
Autoscroll
slow
fast
+/-
esc
set tempo
stop
Difficulty
Pat Benatar - Hell is for Children

  Intro
G|------|-------|------|-------|
D|------|-------|------|-------|
A|-3----|--3----|-3----|--3----|
E|------|-3-----|------|-3-----|

  Verse		    forgive and forget
G|---------|	 |-------|----------|-------|---------------|
D|-----1---|	 |-------|-----1----|-------|---0-1-0-------|
A|-3-----1-|	 |-5--5--|-3-----3--|-5--5--|-3-------3-1-3-|
E|---------| 8X	 |-------|----------|-------|---------------|

  Chorus
  because   hell
G|-----|   |------------|-----------|-----------|-----------|
D|-----|   |------------|-----------|-----------|-----------|
A|-1-1-|   |-1--3-3--3--|-1--3-3--3-|-----------|-----------|
E|-----|   |------------|-----------|-4--6-6--6-|-4--6-6--6-| 4X
				     ___________________
   and you should not be paid	    |chorus 1 |chorus 2 |
G|----------|-----------|-----------|---------|---------|
D|----------|-----------|-----------|---------|---------|
A|-1-333333-|-1111-1111-|-----------|---------|---------|
E|----------|-----------|-4444-4444-|---3-----|---6-----|

  Verse 2
G|---------|
D|-----1---|
A|-3-----1-|
E|---------| 4X

   forgive and forget
G|-------|----------|-------|----------|
D|-------|-1--------|-------|-1--------|
A|-3--3--|---1--3---|-3--3--|---1--3---|
E|-------|----------|-------|----------|

G|-------|----------|-------|---------------|
D|-------|-----1----|-------|---0-1-0-------|
A|-5--5--|-3-----3--|-5--5--|-3-------3-1-3-|
E|-------|----------|-------|---------------|

Chorus


G|---------|---------------|
D|---------|---------------|
A|-3---3---|-3--3--3-3-3-3-|
E|---------|---------------|

   solo	/ outro
G|------------|-----------|-----------|-----------|
D|------------|-----------|-----------|-----------|
A|-1--3-3--3--|-1--3-3--3-|-----------|-----------|
E|------------|-----------|-4--4-4--4-|-4--4-4--4-|

G|-----------|-----------|------------|----------------|
D|-----------|-----------|------------|----------1-0---|
A|-----------|-1--1-1--1-|-1--3-3--3--|-1------------1-|
E|-3--3-3--3-|-----------|------------|----3-3-3-------| repeat many times

G|------------|------------|----------------|
D|------------|------------|----------1-0---|
A|----------1-|-1--3-3--3--|-1--3-3-------1-|
E|-1--3--4----|------------|----------------| 2X

G|------------|------------|----3--5--7-|-8--10----|
D|------------|-------1--3-|-5----------|----------|
A|----------1-|-3--5-------|------------|----------|
E|-1--3--4----|------------|------------|----------|

G|------------|-----------|------------|-----------|
D|------------|-----------|------------|-----------|
A|-1--3-3--3--|-1--3-3--3-|-1--3-3--3--|-1--3-3----|
E|------------|-----------|------------|-----------|

            
            
Suggest correction
Creating personal tab
Creating personal tab
You can edit any tab online and save it as your Personal.

You can edit, replace or remove any tab part or add personal notes – all changes will be seen only by you.

Personal tabs can be accessed anytime from any device, even offline.
Learn more »
comments
print report bad tab
guest
Wanna post a correction for this tab? Suggest correction