Oops, an error
Loading. Please wait.

Hit Me With Your Best Shot Bass

version 1
version 1

Whole song

Interactive

33,216 views 27 this week
7 commentsread comments
1 2 3 4 5
x 17
add to favorites
launch autoscroll
font size
0
reset
guitar tuner
backing track
0:00
0:00
×
Best way to learn
"Hit Me With Your Best Shot"
Autoscroll
slow
fast
+/-
esc
set tempo
stop
Author
Tuning
  follow
E A D G B E
[Intro]
G|----------------------------|------------------------------|
D|----------------------------|------------------------------| x2
A|------0-0----4-4---2-2------|------0-0----4-4-2-2-0-0-2-2--|
E|-0--------------------------|-0----------------------------|
                                                
[Verse 1,2]
G|---------------------------------------------|
D|---------------------------------------------| x2
A|-------6--4------0--2---2-2--2-2-2-2-2-2-2-2-|
E|-0-------------------------------------------|

[Chorus]
G|----------------------------|------------------------------|
D|----------------------------|------------------------------| x2
A|------0-0----4-4---2-2------|------0-0----4-4-2-2-0-0-2-2--|
E|-0--------------------------|-0----------------------------|

[Solo]
Verse pattern x2 + Chorus pattern x2

[Verse 3]
(After Solo)
G|-----------------|----------------|----------------|-4---------------|
D|-----------------|----------------|--4---------4---|---4-------------|
A|-7-----7-6-----6-|-4------------4-|----2-----2-----|-----2-----4---6-|
E|-----------------|----------2-4---|----------------|-----------------|

G|-----------------|----------------|----------------|-----------------|
D|-----------------|----------------|--4---------4---|-----------------|
A|-7-----7-6-----6-|-4------------4-|----2-----2-----|-2-2-2-2-2-4---6-|
E|-----------------|----------2-4---|----------------|-----------------|
                                                                                                             
G|------|------|------|---------------------------------|
D|------|------|------|---------------------------------|
A|------|------|------|---------------------------------|
E|---0--|-0----|-0----|-0-0-0-0-0-0-0-0-0-0-0-0-0-0-0-0-|
                                                                                                    
[Outro] 
G|----------------------------|------------------------------|
D|----------------------------|------------------------------|
A|------0-0----4-4---2-2------|------0-0----4-4-2-2-0-0-2-2--|
E|-0--------------------------|-0----------------------------|
                                                                                                  
G|----------------------------|-------------------------------|
D|----------------------------|-------------------------------|
A|------0-0----4-4---2-2------|------0-0----4-4-2-2-0-0-2-----|
E|-0--------------------------|-0---------------------------0-|
                                                                                                      
G|------------------------------|------------------------------|
D|------------------------------|------------------------------|
A|-----0-0----4-4---2-0-0-2-----|-----0-0----4-4-2-2-0-0-2-----|
E|----------------------------0-|----------------------------0-|
                                                  
G|------------------------------|--------|--------|--------|
D|------------------------------|--------|--------|--------|
A|-----0-0----4-4-2-2-0-0-2---2-|--------|--------|--------|
E|------------------------------|-0------|--------|-0------|
Suggest correction
comments
print report bad tab
7 comments total. Showing first comments.
0 reply
xchen 47 May 14, 2007 07:18 PM

Yeah, it's great, but the timing of verse 3 is hard to get down.

0 reply
cheesetabman 635 Feb 17, 2008 11:24 PM

great tab. 5 stars

0 reply
RingoShort 10 Apr 19, 2008 04:35 PM

Overall a great job... the solo is played as written twice, and then plays the intro riff twice before heading into the 3rd verse.

guest
You may want to rate the tab now too:
select rating
Wanna post a correction for this tab? Suggest correction