Oops, an error
Loading. Please wait.

Hit Me With Your Best Shot Tab

version 3
version 3

Whole song

Interactive

216,354 views 315 this week
34 commentsread comments
1 2 3 4 5
excellent!
x 140
add to favorites
launch autoscroll
font size
0
reset
how to read this tab
guitar tuner
Tab Pro tools
  • play this tab
  • loop segment
  • change instrument
  • show fretboard
  • metronome
×
Best way to learn
"Hit Me With Your Best Shot"
Autoscroll
slow
fast
+/-
esc
set tempo
stop
Contributor
Tuning: Standard

First Part (Play this twice)

e|--------------------------------------------------------------|
B|--------------------------------------------------------------|
G|--------------------------------------------------------------|
D|-9---2--2---6--6--4--4----9---2--2--6--6--4--4--2--2--4--4----|
A|-7---0--0---4--4--2--2----7---0--0--4--4--2--2--0--0--2--2----|
E|--------------------------------------------------------------|

Second Part (Play this twice)

e|--------------------------------------------------------------|
B|--------------------------------------------------------------|
G|--------------------------------------------------------------|
D|-9---8--6---2--4----------------------------------------------|
A|-7---6--4---0--2----2-2-2-2-2-2-2-2-2-2-2-2-2-2-2-2-----------|
E|--------------------------------------------------------------|

Palm mute the single notes, slowly open up towards the end.

Play first part again.

Second Part again.

First Part again.


Solo here (1:15)

e|--------------------------------------------------------------------------|
B|-----5-7-5-4---------------5p-4-4-4-4p-2-2-2-0h-2p-0----------------------|
G|-4-6---------6-4-4h-6p-4h-------------------------------------------------|
D|--------------------------------------------------------------------------|
A|--------------------------------------------------------------------------|
E|--------------------------------------------------------------------------|

(1:19)

e|--------------------------------------------------------------------------|
B|-0h-2p-0h-2p-0h-2p-0h-2p-0h-2--2h-4p-2h-4p-2h-4p-2h-4p-2h-4---------------|
G|--------------------------------------------------------------------------|
D|--------------------------------------------------------------------------|
A|--------------------------------------------------------------------------|
E|--------------------------------------------------------------------------|

e|-------------------------------------------------------9/2----------------|
B|-4h-5p-4h-5p-4h-5p-4h-5p-4h-5--5h-7p-5h-7p-5h-7p-5h-7---------------------|
G|--------------------------------------------------------------------------|
D|--------------------------------------------------------------------------|
A|--------------------------------------------------------------------------|
E|--------------------------------------------------------------------------|

(1:23)

e|-0h-2--0h-2--0h-2--2--0h-2p-0---0h-2--0h-2--0h-2--2--0h-2p-0--------------|
B|--------------------------------------------------------------------------|
G|--------------------------------------------------------------------------|
D|--------------------------------------------------------------------------|
A|--------------------------------------------------------------------------|
E|--------------------------------------------------------------------------|

(1:27)

e|--7--6--4--4/1-------------------14----14----14----14----14----14---------|
B|----------------2(Bend)-2-----------12----12----12----12----12----12------|
G|--------------------------4-----------------------------------------------|
D|--------------------------------------------------------------------------|
A|--------------------------------------------------------------------------|
E|--------------------------------------------------------------------------|

e|--------------------------------------------------------------------------|
B|-12-----------------------------------------------------------------------|
G|----11-----------------------------------------------5(full bend) 4-------|
D|-------------------14--------14--------14--14-14--------------------------|
A|-------------10/12-----10/12-----10/12-----12-12--2-----------------------|
E|--------------------------------------------------0-----------------------|

(1:41)

e|--------------------------------------------------------------------------|
B|--------------------------------------------------------------------------|
G|--9--9------------------------------8-8-8-8-9-----------------------------|
D|--------9--9----9-9-9-9-11-11-11-11---------------------------------------|
A|-----------------(palm mute)----------------------------------------------|
E|--------------------------------------------------------------------------|

Solo over

Quiet Part (palm muted) (Play this twice)

e|--------------------------------------------------------------------------|
B|-5------5-4-------2------2------2-----------------------------------------|
G|---4--------4---4---4---------1---4h-6p-4--------4------------------------|
D|-----4--------2-------2-----4----------------4-----4-------1--------------|
A|--------------------------4----------------2---2-----2---4----------------|
E|--------------------------------------------------------------------------|

First Part again

The chords switch up a bit at the end, very easy to find out.

Thanks for trying my tab, e-mail me if you have any questions or comments.


| /  slide up
| \  slide down
| h  hammer-on
| p  pull-off
| ~  vibrato
| +  harmonic
| x  Mute note
===============================================================================
comments
print report bad tab
34 comments total. Showing first comments. show 1 bad comment
+11 reply
Kash1333 wrote on February 1 2008, 06:39 am

Nice Work, Doesn't sound too bad. Thumbs up dude.

+11 reply
SheLovesMusic wrote on March 8 2008, 05:14 pm

this tab is pretti kwl =]

altho the second bit i think
e|--------------------------------------------------------------|
B|--------------------------------------------------------------|
G|--------------------------------------------------------------|
D|-9---9--6---2--4----------------------------------------------|
A|-7---6--4---0--2----2-2-2-2-2-2-2-2-2-2-2-2-2-2-2-2-----------|
E|--------------------------------------------------------------|

D|-9---9-- rather than D|-9---8-- sounds a little better
A|-7---6-- A|-7---6--

besides that uber tab

I want to post or [tab]
guest
You may want to rate the tab now too:
select rating
Please do not post tabs as comments. Select "correction" instead!