Oops, an error
Loading. Please wait.
We have an official Hit Me With Your Best Shot tab made by UG professional guitarists. Check out the tab »
×

Hit Me With Your Best Shot tab

version 4
version 4

Whole song

Interactive

187 views 24 this week
no commentswrite comment
1 2 3 4 5
2 more votes to show rating
add to favorites
×
Save as Personal and add changes to this tab that will be seen only by you. Learn more ›
×
You can save this tab as Personal to edit and correct it or add notes. All changes will be seen only by you. Learn more »
launch autoscroll
font size
0
reset
how to read this tab
guitar tuner
backing track
0:00
0:00
edit
Autoscroll
slow
fast
+/-
esc
set tempo
stop
About this tab version
This is a guitar tab for both lead guitar and rhythm guitar and there is also lyrics. There is time stamps for each section of the song, so it is accurate. It is an awesome song once you learn it. Hope you enjoy :). Was this info helpful? Yes No
ARTIST: PAT BENATAR

SONG: HIT ME WITH YOUR BEST SHOT

TUNING: STANDARD

=============
*LEAD GUITAR*
=============

[Intro] (0:01)
e|----------------------------------------------------------------|
B|----------------------------------------------------------------|
G|----------------------------------------------------------------|
D|--9---2--6-6--4-4---9---2---6-6--4-4--2-2--4-4------------------| (x2)
A|--7---0--4-4--2-2---7---0---4-4--2-2--0-0--2-2------------------|
E|----------------------------------------------------------------|


[Verse 1] (0:16)
                 P.M.|------------------------------
e|----------------------------------------------------------------|
B|----------------------------------------------------------------|
G|----------------------------------------------------------------|
D|--9----8--6---2--4----------------------------------------------| (x2)
A|--7----6--4---0--2--2-2-2-2-2-2-2-2-2-2-2-2-2-2-2-2-------------|
E|----------------------------------------------------------------|

[Chorus 1] (0:31)
e|----------------------------------------------------------------|
B|----------------------------------------------------------------|
G|----------------------------------------------------------------|
D|--9---2--6-6--4-4---9---2---6-6--4-4--2-2--4-4------------------| (x2)
A|--7---0--4-4--2-2---7---0---4-4--2-2--0-0--2-2------------------|
E|----------------------------------------------------------------|

[Verse 2] (0:46)
                 P.M.|------------------------------
e|----------------------------------------------------------------|
B|----------------------------------------------------------------|
G|----------------------------------------------------------------|
D|--9----8--6---2--4----------------------------------------------| (x2)
A|--7----6--4---0--2--2-2-2-2-2-2-2-2-2-2-2-2-2-2-2-2-------------|
E|----------------------------------------------------------------|

[Chorus 2] (1:01)
e|----------------------------------------------------------------|
B|----------------------------------------------------------------|
G|----------------------------------------------------------------|
D|--9---2--6-6--4-4---9---2---6-6--4-4--2-2--4-4------------------| (x2)
A|--7---0--4-4--2-2---7---0---4-4--2-2--0-0--2-2------------------|
E|----------------------------------------------------------------|

[Solo] (1:16)
e|--------11h14p11-12----11--------------------------------0------------------------|
B|-----12-------------14----12h14p12~~~~12-----------------0------------------------|
G|--13-------------------------------------9-9-9\8-8-8-8\6--------------------------|
D|----------------------------------------------------------------------------------|
A|----------------------------------------------------------------------------------|
E|----------------------------------------------------------------------------------|

e|----------------------------------------------------------------------------------|
B|--0h2p0h2p0h2p0h2p0h2p0h4p0h4p0h4p0h4p0h4p0h5p0h5p0h5p0h5p0h7p0h7-12\0------------|
G|----------------------------------------------------------------------------------|
D|----------------------------------------------------------------------------------|
A|----------------------------------------------------------------------------------|
E|----------------------------------------------------------------------------------|

e|----------------7-------------------7-0---------------------------------|
B|--5h7-5h7-5h7-5---5h7-5h7-5h7-5h7-5-----7-0-12-11-10-9~~~9--------------|
G|---------------------------------------------------------------6b-------|
D|------------------------------------------------------------------------|
A|------------------------------------------------------------------------|
E|-----------------------------------------------------------7-6----------|

e|--14---14---14---14---14---14-------------------------------------------|
B|------------------------------------------------------------------------|
G|-----16---16---16---16---16---16~~~~~16---------------------------------|
D|----------------------------------------16--16--------------------------|
A|------------------------------------------------------------------------|
E|------------------------------------------------------------------------|

e|---------------------------------------------------------------------------|
B|-----------------------------------------15b--------0-0--------------------|
G|------9----9----9-9-9-----------4b---4--------2b-2b------------------------|
D|---7----7-----9-9-9-9------------------------------------------------------|
A|----------------------7--7-------------------------------------------------|
E|----------------------------7\0--------------------------------------------|

e|----------------------------------------------------------------|
B|-0-0-2-2-2-2-4-4-4-4-5-5-5~~~~~~~~------------------------------|
G|----------------------------------------------------------------|
D|----------------------------------------------------------------|
A|----------------------------------------------------------------|
E|----------------------------------------------------------------|

[Bridge] (1:46)
P.M.|---------------------------------------------------------
e|-------------------------2----------------------------------------|
B|---5-----5-4-------2-------------2--------------------------------|
G|-----4-------4---4---4---------1---4h6p4--------4-----------------|
D|-------4-------2-------2-----4--------------4-----4-------1-------| (x2)
A|---------------------------4--------------2---2-----2---4---------|
E|------------------------------------------------------------------|

[Chorus 3] (2:01)
e|-----------------------------------------------------------------|
B|-----------------------------------------------------------------|
G|-----------------------------------------------------------------|
D|--9---2--6-6--4-4----9---2---6-6--4-4--2-2--4-4------------------| (x4)
A|--7---0--4-4--2-2----7---0---4-4--2-2--0-0--2-2------------------|
E|-----------------------------------------------------------------|

[Outro] (2:27)
e|---------------------------------------------|
B|---------------------------------------------|
G|---------------------------------------------|
D|-----2---6-6--4-4--2-2--4-4------------------| (x4)
A|-----0---4-4--2-2--0-0--2-2------------------|
E|---------------------------------------------|

End on a open E chord

==================
| h - Hammer On
| p - Pull Off
| ~ - Vibrato
| b - Bend
| \ - Slide Down
| P.M. - Palm Mute
==================


===============
*RHYTHM GUITAR*
===========--==

[Intro] (0:01)
e|----------------------------------------------------------------|
B|----------------------------------------------------------------|
G|----------------------------------------------------------------|
D|--9---2--6-6--4-4---9---2---6-6--4-4--2-2--4-4------------------| (x2)
A|--7---0--4-4--2-2---7---0---4-4--2-2--0-0--2-2------------------|
E|----------------------------------------------------------------|


[Verse 1] (0:16)
                 P.M.|------------------------------
e|----------------------------------------------------------------|
B|----------------------------------------------------------------|
G|----------------------------------------------------------------|
D|--9----8--6---2--4----------------------------------------------| (x2)
A|--7----6--4---0--2--2-2-2-2-2-2-2-2-2-2-2-2-2-2-2-2-------------|
E|----------------------------------------------------------------|

[Chorus 1] (0:31)
e|----------------------------------------------------------------|
B|----------------------------------------------------------------|
G|----------------------------------------------------------------|
D|--9---2--6-6--4-4---9---2---6-6--4-4--2-2--4-4------------------| (x2)
A|--7---0--4-4--2-2---7---0---4-4--2-2--0-0--2-2------------------|
E|----------------------------------------------------------------|

[Verse 2] (0:46)
                 P.M.|------------------------------
e|----------------------------------------------------------------|
B|----------------------------------------------------------------|
G|----------------------------------------------------------------|
D|--9----8--6---2--4----------------------------------------------| (x2)
A|--7----6--4---0--2--2-2-2-2-2-2-2-2-2-2-2-2-2-2-2-2-------------|
E|----------------------------------------------------------------|

[Chorus 2] (1:01)
e|----------------------------------------------------------------|
B|----------------------------------------------------------------|
G|----------------------------------------------------------------|
D|--9---2--6-6--4-4---9---2---6-6--4-4--2-2--4-4------------------| (x2)
A|--7---0--4-4--2-2---7---0---4-4--2-2--0-0--2-2------------------|
E|----------------------------------------------------------------|

[Solo] (1:16)
  P.M.|------------------------------
e|----------------------------------------------------------------|
B|----------------------------------------------------------------|
G|----------------------------------------------------------------|
D|--9----8--6---2--4----------------------------------------------| (x2)
A|--7----6--4---0--2--2-2-2-2-2-2-2-2-2-2-2-2-2-2-2-2-------------|
E|----------------------------------------------------------------|

e|-----------------------------------------------------------------|
B|-----------------------------------------------------------------|
G|-----------------------------------------------------------------|
D|--9---2--6-6--4-4----9---2---6-6--4-4--2-2--4-4------------------| (x2)
A|--7---0--4-4--2-2----7---0---4-4--2-2--0-0--2-2------------------|
E|-----------------------------------------------------------------|

[Bridge] (1:46)
P.M.|---------------------------------------------------------
e|-------------------------2----------------------------------------|
B|---5-----5-4-------2-------------2--------------------------------|
G|-----4-------4---4---4---------1---4h6p4--------4-----------------|
D|-------4-------2-------2-----4--------------4-----4-------1-------| (x2)
A|---------------------------4--------------2---2-----2---4---------|
E|------------------------------------------------------------------|

[Chorus 3] (2:01)
e|-----------------------------------------------------------------|
B|-----------------------------------------------------------------|
G|-----------------------------------------------------------------|
D|--9---2--6-6--4-4----9---2---6-6--4-4--2-2--4-4------------------| (x4)
A|--7---0--4-4--2-2----7---0---4-4--2-2--0-0--2-2------------------|
E|-----------------------------------------------------------------|

[Outro] (2:27)
e|---------------------------------------------|
B|---------------------------------------------|
G|---------------------------------------------|
D|-----2---6-6--4-4--2-2--4-4------------------| (x4)
A|-----0---4-4--2-2--0-0--2-2------------------|
E|---------------------------------------------|

End on a open E Chord

==================
| h - Hammer On
| p - Pull Off
| ~ - Vibrato
| b - Bend
| \ - Slide Down
| P.M. - Palm Mute
==================

========
*LYRICS*
========

[Intro] (0:01)

Does not sing

[Verse 1] (0:16)
Well you're a real tough cookie with a long history
Of breaking little hearts like the one in me
That's okay, let's see how you do it
Put up you dukes, let's get down to it          

[Chorus 1] (0:31)
Hit me with your best shot
Why don't you hit me with your best shot
Hit me with your best shot
Fire away!

[Verse 2] (0:46)
You come on with it, come on
You don't fight fair
That's okay, see if I care
Knock me down, it's all in vain
I get right back on my feet again    
          
[Chorus 2] (1:01)
Hit me with your best shot
Why don't you hit me with your best shot
Hit me with your best shot
Fire away!

[Solo] (1:16)

Does not sing

[Bridge] (1:46)
Well you're a real tough cookie with a long history
Of breaking little hearts like the one in me
Before I put another notch in my lipstick case
You better make sure you put me in my place

[Chorus 3] (2:01)
Hit me with your best shot
C'mon, hit me with your best shot
Hit me with your best shot
Fire away!

[Outro] (2:27)

Does not sing

=============================================
When there is an exlamation mark, make
sure to raise your voice to reach the
high note.
=============================================

Tabbed By: astorper22

            
            
Suggest correction
Creating personal tab
Creating personal tab
You can edit any tab online and save it as your Personal.

You can edit, replace or remove any tab part or add personal notes – all changes will be seen only by you.

Personal tabs can be accessed anytime from any device, even offline.
Learn more »
Give kudos to tab author, rate the tab!
1 2 3 4 5
comments
print report bad tab
guest
You may want to rate the tab now too:
select rating
Wanna post a correction for this tab? Suggest correction