Oops, an error
Loading. Please wait.

Heartbreaker Tab

2,579 views 1 this week
no commentswrite comment
1 2 3 4 5
1 last vote to show rating
add to favorites
launch autoscroll
font size
0
reset
how to read this tab
guitar tuner
Autoscroll
slow
fast
+/-
esc
set tempo
stop
Help us to improve Ultimate-Guitar.com Take our survey!
×
Author
Difficulty
intermediate
Heartbreaker - Pat Benatar


| ---- | ---Ab- | Fm | Fm Ab | Fm | Fm Ab | Fm | Fm Ab |
  1234   123+ 4  1234  123+ 4 1234  123+ 4 1234  123+ 4

verse
| Fm | Eb | Db | Bbm - C Eb |
| Fm | Eb | Db | Bbm - C Eb |
| Fm Eb | Db | Bbm | C |
| Fm Eb | Db | Bbm | C | C |

Chorus
| Fm--G- | Ab | Bbm--C- | -Db--C- |
   123+4          123+4   1+ 23+4
| Fm--G- | Ab | Bbm--C- | -Db--C- |

| Fm | Fm Ab | Fm | Fm |

verse
| Fm | Eb | Db | Bbm - C Eb |
| Fm | Eb | Db | Bbm - C Eb |
| Fm Eb | Db | Bbm | C |
| Fm Eb | Db | Bbm | C | C |

Chorus
| Fm--G- | Ab | Bbm-C- | -Db--C- |
   123+4         123+4   1+ 23+4
| Fm--G- | Ab | Bbm-C- | -Db--C- |

| Fm | Fm Ab | Fm | Fm Ab |

Bridge
| Eb--Fm- | C--Bb- | Ab-G--Fm | -Eb-D- |
   123+ 4   123+ 4    12+34+    12 3+4

| Eb--Fm- | C--Bb- | Ab G F Eb Eb Db C Bb |   C Db G-F |
   123+ 4   123+ 4 | 1  + 2  +  3 +  4 +    1 +  2 +34

| C | C | C | C |

| Fm---C | Db---C | Bb--- |-C-Bb-Ab-G |
   1234+    1234+    1234  1+2+ 3+ 4+

| Fm---C | Db---C | Bb--- | C | C |
   1234+    1234+    1234

|----|----|----|----|

Chorus
| Fm--G- | Ab | Bbm-C- | -Db--C- |
   123+4         123+4   1+ 23+4
| Fm--G- | Ab | Bbm-C- | -Db--C- |




Intro Lick

E--------------------------------|
B--------------------------------|
G-3b(5)--1--3--------------------|
D--------------1--3--------------|
A--------------------1--3--------|
E--------------------------4--3--|

After first chorus

E--------------------|
B--------------------|
G-3b(5)-t11-3b(5)--6-|
D--------------------|
A--------------------|
E--------------------|

Bridge:
-----------------------------------------------------------------------------------|
-----------------------------------------------------------------------------------|
------------------------------1-0--------------0-------5-----5-----5----5----------|
1-3------------1-0-1-3-----------3-1-------------3---------------------------------|
----3-1----------------3--1---------4-3-1-3-4------3-3---3-3---3-3--3-3----3-3-3-3-|
--------4-3--1---------------------------------------------------------------------|
Suggest correction
Give kudos to tab author, rate the tab!
1 2 3 4 5
comments
print report bad tab
guest
You may want to rate the tab now too:
select rating
Wanna post a correction for this tab? Suggest correction