Oops, an error
Loading. Please wait.

Carry On Tab

4,826 views 3 this week
no commentswrite comment
1 2 3 4 5
please rate
add to favorites
launch autoscroll
font size
0
reset
how to read this tab
guitar tuner
Tab Pro tools
  • play this tab
  • loop segment
  • change instrument
  • show fretboard
  • metronome
×
Best way to learn
"Carry On"
Autoscroll
slow
fast
+/-
esc
set tempo
stop
Contributor
Difficulty
intermediate
Pat Green
"Carry On"
Three Days

Intro:
e|-------------------------------------------------------------|
B|-------------------------------------------------------------|
G|-------------------------------------------------------------|
D|-2-2---4-4---5-5---4-4---2-2---4-4---------------------------|
A|-5-5-x-5-5-x-5-5-x-5-5-x-5-5-x-5-5-/2--2-x-2-x-2-x-2-x-2-x-2-|
E|-----------------------------------/3--3-x-3-x-3-x-3-x-3-x-3-|

e|------------------------------------------|
B|------------------------------------------|
G|----------------------------------------0-|
D|-2-2---4-4---5-5---4-4---2-2---4-4----0---|
A|-5-5-x-5-5-x-5-5-x-5-5-x-5-5-x-5-5-/2-----|
E|-----------------------------------/3-----|

e|--------------------------------------------3-3-3-|
B|------------------------------------------3-3-3-3-|
G|----------------------------------------0-0-0-0-0-| x2
D|-2-2---4-4---5-5---4-4---2-2---4-4------0-0-0-0-0-|
A|-5-5-x-5-5-x-5-5-x-5-5-x-5-5-x-5-5-/2---2-2-2-2-2-|
E|-----------------------------------/3---------3-3-|

Verse:
e|------0~--0-0-x-2-2-x-3-3-x-0-0--|
B|-----0~---3-3-x-3-3-x-3-3-x-3-3--|
G|----0~----2-2-x-2-2-x-2-2-x-2-2--| x3
D|---2~-----0-0-x-0-0-x-0-0-x-0-0--|
A|--2~-----------------------------|
E|-0~------------------------------|

e|------0~-0-0-0-0-0-0-|
B|-----0~--2-2-2-2-2-2-|
G|----0~---2-2-2-2-2-2-| x1
D|---2~----2-2-2-2-2-2-|
A|--2~-----0-0-0-0-0-0-|
E|-0~------------------|

Chorus
e|-3--0--0-0-x-2-2-x-3-3-x-0-0--|
B|-3--2--3-3-x-3-3-x-3-3-x-3-3--|
G|-0--2--2-2-x-2-2-x-2-2-x-2-2--|
D|-0--2--0-0-x-0-0-x-0-0-x-0-0--|
A|-2--0-------------------------|
E|-3----------------------------|
"Yeah everybody's gotta get away sometime" 

e|-0--0--0-0-x-2-2-x-3-3-x-0-0--|
B|-0--2--3-3-x-3-3-x-3-3-x-3-3--|
G|-0--2--2-2-x-2-2-x-2-2-x-2-2--|
D|-2--2--0-0-x-0-0-x-0-0-x-0-0--|
A|-2--0-------------------------|
E|-0----------------------------|
"Forget about yourself for a while"

e|-3--0--2-2-x-0-0-x-0--|
B|-3--2--3-3-x-2-2-x-0--|
G|-0--2--2-2-x-2-2-x-0--|
D|-0--2--0-0-x-2-2-x-2--|
A|-2--0--------0-0-x-2--|
E|-3-----------------0--|
"Seems to me that all you need is a ragtop car to ride with me"

e|-0--0--3--0--0--0--2-|
B|-0--2--3--2--0--2--3-|
G|-0--2--0--2--0--2--2-|
D|-2--2--0--2--2--2--0-|
A|-2--0--2--0--2--0----|
E|-0-----3-----0-------|
"OK, alright, just might get a little high tonight, OK, alright, carry on"

Fill
e|--------------------------------------------------|
B|----------------------------------------------3---|
G|--------------------------------------------0---0-|
D|-2-2---4-4---5-5---4-4---2-2---4-4--------0-------|
A|-5-5-x-5-5-x-5-5-x-5-5-x-5-5-x-5-5-/2--0h2--------|
E|-----------------------------------/3-------------|

e|--------------------------------------------|
B|--------------------------------------------|
G|--------------------------------------------|
D|-2-2---4-4---5-5---4-4---2-2---4-4--------0-|
A|-5-5-x-5-5-x-5-5-x-5-5-x-5-5-x-5-5-/2--0h2--|
E|-----------------------------------/3-------|

Verse
Chorus
Solo (play chords of chorus)
Fill
Verse (x2)
Chorus 
Fill

not too hard of a song -- great for sitting on the front porch and singing with friends. enjoy!

comments
We did not receive enough feedback on this tab! Please rate:
print report bad tab
1 2 3 4 5
I want to post or [tab]
guest
You may want to rate the tab now too:
select rating
Please do not post tabs as comments. Select "correction" instead!