Oops, an error
Loading. Please wait.

Gibby Tab

417 views 3 this week
no commentswrite comment
1 2 3 4 5
1 last vote to show rating
add to favorites
launch autoscroll
font size
0
reset
how to read this tab
guitar tuner
Autoscroll
slow
fast
+/-
esc
set tempo
stop
Help us to improve Ultimate-Guitar.com Take our survey!
×
Gibby
Artist: Pat McGee Band
Album: Shine

Contributor: Daniel Schnall


Intro / Pre-Verse
e|-----5------------------|
B|-----x------------------|
G|-----6-6h7--7p6-7p6-----|
D|-----7--------------7---|
A|------------------------|
E|---5--------------------|

e|-----5------------------|
B|-----x--------------5---|
G|-----6-6h7--7p6-7p6-----|
D|-----7------------------|
A|------------------------|
E|---5--------------------|

e|-----5------------------|
B|-----x------------------|
G|-----6-6h7--7p6-7p6-----|
D|-----7--------------7---|
A|------------------------|
E|---5--------------------|

e|-----5---5/9---9---7--5---|
B|-----x---7/10--10--8--7---|
G|-----6--------------------|
D|-----7--------------------|
A|--------------------------|
E|---5----------------------|


Verse
e|--(0)--(0)--|
B|---0----3---|
G|---2----2---|
D|---2----0---|
A|---0--------|
E|------------|


Pre Chorus
e|---0----0----0-----0----0----0---|
B|---0----0----0-----0----0----0---|
G|---4----2----1-----4----2----1---|
D|---4----2----2-----4----2----2---|
A|---2----0----2-----2----0----2---|
E|-------------0---------------0---|

Chorus
e|--(0)---0----2----0----2----0---(0)--|
B|---3----2----2----0----2----2----3---|
G|---2----2----2----1----2----2----2---|
D|---0----2----4----2----4----2----0---|
A|--------0----4----2----4----0--------|
E|-------------2----0----2-------------|

e|--(0)---0----2----0----2----0----3---(0)--|
B|---3----2----2----0----2----2----3----3---|
G|---2----2----2----1----2----2----0----2---|
D|---0----2----4----2----4----2----0----0---|
A|--------0----4----2----4----0----2--------|
E|-------------2----0----2---------3--------|


Bridge
e|---3---(0)---0----|
B|---3----3----2----|
G|---0----2----2----|
D|---0----0----2----|
A|---2---------0----|
E|---3--------------|
Suggest correction
Give kudos to tab author, rate the tab!
1 2 3 4 5
comments
print report bad tab
guest
You may want to rate the tab now too:
select rating
Wanna post a correction for this tab? Suggest correction