Oops, an error
Loading. Please wait.

Guess We Were Tab

353 views 1 this week
no commentswrite comment
1 2 3 4 5
please rate
add to favorites
launch autoscroll
font size
0
reset
how to read this tab
guitar tuner
Autoscroll
slow
fast
+/-
esc
set tempo
stop
Help us to improve Ultimate-Guitar.com Take our survey!
×
Contributor
Guess We Were
Artist: Pat McGee
Album: These Days (The Virginia Sessions)

Contributor: Daniel Schnall


Intro
e|---------------------------------------------0----------|
B|-------------3-----------3-----3-----2-----2-----3------|
G|---------0h2---4p2p0-------2-----2-----2-------2--------|
D|--0h2h4--------------4-0-----0-----0-----0---------0----|
A|--------------------------------------------------------|
E|-----------------------------------------------------3--|

e|--3---------------------------------------------0----------|
B|--3-------------3-----------3-----3-----2-----2-----3------|
G|--0---------0h2---4p2p0-------2-----2-----2-------2--------|
D|--0--0h2h4--------------4-------0-----0-----0---------0----|
A|--2-----------------------2--------------------------------|
E|--3-----------------------------------------------------3--|

e|--3--------------------------3--|
B|--3-------------3------------3--|
G|--0---------0h2---4p2p0------0--|
D|--0--0h2h4--------------4-0--0--|
A|--2--------------------------2--|
E|--3--------------------------3--|


Verse 
e|---------------------|
B|--10---8----10---10--|
G|--11---9----11--(12)-|
D|--x----x----x----11--|
A|--12---10---12---12--|
E|---------------------|


Pre-Chorus
e|----------7----0--|
B|------7---8----5--|
G|--7---8---9----6--|
D|--7---7---9----7--|
A|--9---9---7----0--|
E|--7---7--(7)---5--|


Chorus
e|--0---3--|    |--0--3--0--|
B|--3---3--|    |--3--3--2--|
G|--2---0--|x3  |--2--0--2--|
D|--0---0--|    |--0--0--2--|
A|------2--|    |-----2--0--|
E|------3--|    |-----3-----|

e|--3---------------------------------------------0----------|
B|--3-------------3-----------3-----3-----2-----2-----3------|
G|--0---------0h2---4p2p0-------2-----2-----2-------2--------|
D|--0--0h2h4--------------4-0-----0-----0-----0---------0----|
A|--2--------------------------------------------------------|
E|--3-----------------------------------------------------3--|

e|--3---------------------------------------------0----------|
B|--3-------------3-----------3-----3-----2-----2-----3------|
G|--0---------0h2---4p2p0-------2-----2-----2-------2--------|
D|--0--0h2h4--------------4-------0-----0-----0---------0----|
A|--2-----------------------2--------------------------------|
E|--3-----------------------------------------------------3--|

e|--3--------------------------|
B|--3-------------3------------|
G|--0---------0h2---4p2p0------|
D|--0--0h2h4--------------4-0--|
A|--2--------------------------|
E|--3--------------------------|


Bridge
e|----------3-----------|
B|------3---3----3---2--|
G|--0---2---0----2---2--|
D|--2---0---0----0---2--|
A|--2---0---2--------0--|
E|--0---2---3-----------|

e|----------3----0---0--|
B|------3---3----5---5--|
G|--0---2---0----7---6--|
D|--2---0---0----7---7--|
A|--2---0---2----0---0--|
E|--0---2---3----5---5--|
Suggest correction new What's this?
You can suggest a correction to this tab. Community and Mods will review your correction and vote to approve or reject it.
comments
We did not receive enough feedback on this tab! Please rate:
print report bad tab
1 2 3 4 5
guest
You may want to rate the tab now too:
select rating
Please do not post tabs as comments. Select "correction" instead!