Oops, an error
Loading. Please wait.

Havent Seen For Awhile Tab

version 1
version 1

Whole song

4,393 views 6 this week
2 commentsread comments
1 2 3 4 5
accurate
x 4
add to favorites
launch autoscroll
font size
0
reset
how to read this tab
guitar tuner
Tab Pro tools
  • play this tab
  • loop segment
  • change instrument
  • show fretboard
  • metronome
×
Best way to learn
"Havent Seen For Awhile"
Autoscroll
slow
fast
+/-
esc
set tempo
stop
Contributor
Pat McGee Band
“Haven’t Seen for Awhile”
Tabbed by:  Justin Bachtell

Intro/Verse

E-------------------------------
B------------------------2--0---
G----------------1----4--2--2---
D---2—2----------2----4--2--2---
A---------2------2----2--0--0---
E-------------0--0----x---------

Chorus

“I’m there by your side…”
E--------------|    |-------------------
B-------2---0--|    |----------2----0---
G---4---2---2--| x2 |--1----4--2----2--- x2
D---4---2---2--|    |--2----4--2----2---
A---2---0---0--|    |--2----2--0----0---
E---x----------|    |--0----x-----------

That’s pretty much it, pretty simple
comments
print report bad tab
2 comments total.
0 reply
bigred8715 wrote on December 15 2002, 12:00 am

im not sure about the other notes....but the first 4 note go like this:
e---------------------------------------
b---------------------------------------
g---------------------------------------
d---3-3---------------------------------
a---------3-----------------------------
e--------------1------------------------

0 reply
zdosch wrote on June 21 2004, 12:00 am

nice going guys....you wouldn't be able to get the whole song and the solo parts... or would any of you be able to find the full tab???? I have looked up and down for it but no avail. it would be greatly appreciated...thanks a bunch

dosch

I want to post or [tab]
guest
You may want to rate the tab now too:
select rating
Please do not post tabs as comments. Select "correction" instead!