Oops, an error
Loading. Please wait.

On Your Way Out Of Here Tab

210 views 1 this week
no commentswrite comment
1 2 3 4 5
3 more votes to show rating
add to favorites
launch autoscroll
font size
0
reset
how to read this tab
guitar tuner
Autoscroll
slow
fast
+/-
esc
set tempo
stop
Help us to improve Ultimate-Guitar.com Take our survey!
×
On Your Way Out of Here
Artist: Pat McGee Band
Album: Revel

Contributor: Daniel Schnall

Intro
e|--------------0----------------------0------|
B|------------3---3--------------0-0h2---2p0--|
G|--------4---2-----2------------2------------|
D|------4-----0---------0--------2------------|
A|--0h2-----------------------2---------------|
E|------------------------0h3-----------------|


Verse
     Badd4   D     G   Asus2   
e|-----0-----0-----3-----0-----|
B|-----0-----3-----3-----0-----|
G|-----4-----2-----0-----2-----|
D|-----4-----0-----0-----2-----|
A|-----2-----------2-----0-----|
E|-----------------3-----------|


Pre-Chorus
      Em     D     G   Asus2 Badd4  
e|-----0-----0-----3-----0-----0-----|
B|-----0-----3-----3-----0-----0-----|
G|-----0-----2-----0-----2-----4-----|
D|-----2-----0-----0-----2-----4-----|
A|-----2-----------2-----0-----2-----|
E|---0-0-----------3-----------------|


Chorus
     Badd4   G     D   Asus2   
e|-----0-----3-----0-----0-----|
B|-----0-----3-----3-----0-----|
G|-----4-----0-----2-----2-----|
D|-----4-----0-----0-----2-----|
A|-----2-----2-----------0-----|
E|-----------3-----------------|
Suggest correction
Give kudos to tab author, rate the tab!
1 2 3 4 5
comments
print report bad tab
guest
You may want to rate the tab now too:
select rating
Wanna post a correction for this tab? Suggest correction