Oops, an error
Loading. Please wait.

Rebecca Tab

4,141 views 12 this week
1 commentread comment
1 2 3 4 5
x 5
add to favorites
launch autoscroll
font size
0
reset
how to read this tab
guitar tuner
Autoscroll
slow
fast
+/-
esc
set tempo
stop
Help us to improve Ultimate-Guitar.com Take our survey!
×
Author
Capo
2nd fret
Rebecca
Artist: Pat McGee Band
Album: Shine

Contributor: Daniel Schnall
Thanks to O'Hara Hash for help w/intro

Capo: 2 (all chords relative to capo)


Intro
e|------0-----------0-----------0-----------0-0--|
B|--2p0---0-----2p0---0-----2p0---0-----2p0---0--|
G|--------1-----------1-----------1-----------1--|
D|--------2-----------2-----------2-----------2--|
A|--0-----0-----0-----0-----0-----0-----0--------|
E|-----------------------------------------------|

e|---------------------------------|
B|-2h3p2---2-----------------------|
G|-------4---4-2---2---------------|
D|---------------4---4-2---2-------|
A|-----------------------4---4-2-0-|
E|---------------------------------|

e|---0--0--0--0--0--0--0-0--0--0---|
B|---5--3--2--3--2--3—-3/5--5—-3---|
G|---6--4--2--4--2--4--4/6--6--4---| x4
D|---7--4--0--4--0--4--4/6--6--4---|
A|---------------------------------|
E|---------------------------------|


Verse
     A    E   F#m   D
e|---0----0----2----0----|
B|---2----0----2----3----|
G|---2----1----2----2----|
D|---2----2----4----0----|
A|---0----2----4---------|
E|--------0----2---------|


Chorus
     A    E    D    E
e|---0----0----0----0---|
B|---2----0----3----0---|
G|---2----1----2----1---|
D|---2----2----0----2---|
A|---0----2---------2---|
E|--------0---------0---|
(Chorus ends with D D instead of D E)
Suggest correction
comments
print report bad tab
1 comment total.
0 reply
a_kumle 10 Aug 03, 2009 07:48 PM

awesome job, sounds good! not sure about the 2nd intro part, but i think its just that pat plays it really fast. great song

guest
You may want to rate the tab now too:
select rating
Wanna post a correction for this tab? Suggest correction