Oops, an error
Loading. Please wait.

Bright Size Life Tab

version 1
version 1

Whole song

Interactive

21,735 views 51 this week
1 commentread comment
1 2 3 4 5
x 11
add to favorites
launch autoscroll
font size
0
reset
how to read this tab
guitar tuner
×
Best way to learn
"Bright Size Life"
Autoscroll
slow
fast
+/-
esc
set tempo
stop
Author
BRIGHT SIZE LIFE
As recorded by Pat Metheny
(From the 1975 Album BRIGHT SIZE LIFE)
Gtr I (E A D G B E)
 Head
  Moderate Jazz-Rock Q=166
                      Gmaj7
 4/4
  Gtr I
                                                    |-3-| |-3-| |-3-|
  E E E E E E E E      a  Q  E E +Q    E a E   +Q   E E E E E E E E E
e|-----------7-5---||---------------------5s7-|-(7)----5-3-2h3h5-2h3h5--|
B|-------7-5-------||o------------------------|-------------------------|
G|---6-4---------7-||--(7)s9s=7-9-(9)\--------|-------------------------|
D|-4-------------7-||--(7)s9s=7-9-(9)\--------|-------------------------|
A|-----------------||o------------------------|-------------------------|
E|-----------------||-------------------------|-------------------------|

  Bbmaj7                            D                   D/C
                            |-3-|
  W          +Q.   a E +Q   E E E   E E E E +E  E E E   +Q   E E +Q   Q
e|-0--------|-(0)---1s3-(3)----2-0-|-0h2---------------|-------------------|
B|----------|----------------------|-----3-3-(3)---3---|--------3-(3)------|
G|----------|----------------------|-------------2---2-|-(2)--2------------|
D|----------|----------------------|-------------------|-------------------|
A|----------|----------------------|-------------------|-------------------|
E|----------|----------------------|-------------------|-------------------|

  1.                                     2.
  Bbmaj7             G/A                 G/B                  D
  E E E E  E E Q     E E E E E E E E     E E  E E E E E S S   W
e|------------------|-----------7-5----||-7-5\---3---5-2s1s2-|------|
B|-3-5---6\---5-3\--|-------7-5-------o||--------------------|------|
G|------------------|---6-4---------7--||--------------------|------|
D|------------------|-4-------------7--||--------------------|------|
A|------------------|-----------------o||--------------------|------|
E|------------------|------------------||--------------------|------|

  G/A
                                        PM
  Q  E E E E E  a  E    +E   E E E Q  E E
e|------9-------10s12-|-(12)s10-9s8------9-|
B|----------7---------|--------------------|
G|--------7---0-------|--------------------|
D|--------------------|--------------------|
A|--------------------|--------------------|
E|--------------------|--------------------|

     F/G
             |--3---|
   a  E  E  +E   E  E  Q   E  S S    E E Q  H
e|-10s12s10-(10)-10--------10------|--------------|
B|------------------13-12-----10s9s|=10-----------|
G|---------------------------------|--------------|
D|---------------------------------|--------------|
A|---------------------------------|--------------|
E|---------------------------------|--------------|

  G/A                                D                       G/A
       PM
  Q  E E E E E E   a Q  E E E Q  E    E  E E  a  E E  Q.     E E E E E E E E
e|------8-8-------|-7s9s=7-5--------|---------10h12---10----|-----------7-5----|
B|------------7---|------------8----|----10-----------------|-------7-5--------|
G|----------6-----|---------------8-|-11--------------------|---6-4---------7--|
D|--------------5-|-----------------|-----------------------|-4-------------7--|
A|----------------|-----------------|-----------------------|------------------|
E|----------------|-----------------|-----------------------|------------------|

  Gmaj7
                             |-3-| |-3-| |-3-|
  a Q  E E +Q   E a E   +Q   E E E E E E E E E
e|-----------------5s7-|-(7)----5-3-2h3h5-2h3h5-|
B|---------------------|------------------------|
G|-7s9s=7-9-(9)--------|------------------------|
D|-7s9s=7-9-(9)--------|------------------------|
A|---------------------|------------------------|
E|---------------------|------------------------|

  Bbmaj7
                                 |-3-|
  Q.   E +E  Q.     +Q.   a E Q  E E E
e|-0----------0----|-(0)---1s3-3----2-0--|
B|------3-(3)------|---------------------|
G|-----------------|---------------------|
D|-----------------|---------------------|
A|-----------------|---------------------|
E|-----------------|---------------------|

             To Coda
  D                   D/C        A7                Dmaj7
  E E E E +E  E E E   W          a Q.   E Q.   E   E E Q  +E  S S E E
e|-0-2-------------2-|----------|-----------------|---------------------|
B|-----3-------3-3-3-|----------|-5---------------|-----3--(3)-0h2-3-0--|
G|-------------2-2-2-|----------|-4h6----4--------|-----6--(6)----------|
D|-------0-(0)-0-0-0-|----------|----------7----5-|-4-------------------|
A|-------------------|-3--------|-----------------|---------------------|
E|-------------------|----------|-----------------|---------------------|

[Guitar Solo]
  Gmaj7                                          Bbmaj7
  a Q  E E a Q  E E   a Q  E E a  E E  a  E  E    E  E  E  E  E  E  Q
e|------3--------5---|------7--------3-------10-|------------------------|
B|-3s5----5-5s7----7-|-7s8----8-8s10---10s11----|-13s15-15-13\---11-10\--|
G|-------------------|--------------------------|------------------------|
D|-------------------|--------------------------|------------------------|
A|-------------------|--------------------------|------------------------|
E|-------------------|--------------------------|------------------------|

                          D                      D/C
                                 PM
         |--3--|
   E  E  E  E  E Q   Q     Q  E  E  E  E  E  E    Q   E  E E  E  E  E
e|-----------------------|----------14-15p14-12-|-10-----10---12-13-10-|
B|-13s12-11s10s11----11--|-10----10-------------|-----10---------------|
G|-----------------------|----------------------|----------------------|
D|-----------------------|----------------------|----------------------|
A|-----------------------|----------------------|----------------------|
E|-----------------------|----------------------|----------------------|

  Bbmaj7          G/A                      Gmaj7
  |--3--|                  |-3--| |-3-|
  Q  Q  Q  H      E  E Q   E E  E E E E    a Q  E  E E a E E E
e|---12-10-10----|---12p9--10p7-10-7-----||-7h9p=7---------------|
B|---------------|-------------------8---||--------10---5h7---3--|
G|---------------|-----------------------||-----------------4----|
D|---------------|-----------------------||----------------------|
A|---------------|-----------------------||----------------------|
E|---------------|-----------------------||----------------------|

                      Bbmaj7
                                             |-3-| |-3-| |-3-|
  a E E E E E E E E   S S S S Q   H      E E E E E E E E E E E
e|-------------------|------------------|------------------------|
B|-5s7---5-5-3---3-5s|=6s5p3h5p3\-------|---------------3-5-7-8--|
G|-----7-------4-----|------------------|-----------3-5----------|
D|-------------------|------------------|-------3-5--------------|
A|-------------------|------------------|---3-5------------------|
E|-------------------|------------------|------------------------|

  D                 D/C
  Q   Q  E E a Q    Q  E  E  a  E  E  E  E
e|-5\--5--5-5-5h7--|---------10s12s10-------|
B|-----------------|------------------12-10-|
G|-----------------|------11----------------|
D|-----------------|------------------------|
A|-----------------|------------------------|
E|-----------------|------------------------|

  G/B                D
  Q   E a E E E Q    Q  a E E a E E a E  E
e|------------------|-----------------------|
B|-8--10-5s7---5----|----------------5s7-10-|
G|---------------7--|-7--------2s4-7--------|
D|------------------|----2s4-7--------------|
A|------------------|-----------------------|
E|------------------|-----------------------|

    G/A                                          F/G
              PM
  a E  E Q  E E a E  E   Q  a E  E a E  E Q    a E E Q  a E E a E E
e|-4s7-10-9----5-5s7-10-|-9--5s7-10-5s7-10-9--|-3s5-8-7--3s5-8-3s5-8-|
B|----------------------|---------------------|----------------------|
G|----------------------|---------------------|----------------------|
D|----------------------|---------------------|----------------------|
A|----------------------|---------------------|----------------------|
E|----------------------|---------------------|----------------------|

                             G/A
                    |-3--|                              |-3-|
  Q  Q  S S S S S S S  S S   Q  E E E E Q    Q  E E E E E E E
e|-7----------------------7s|=9-------------|-------------------|
B|---------------6-7s8h10---|---------------|-------------------|
G|-----------7-8------------|------9s8s9----|--------------4-6--|
D|-------8-9----------------|---------------|--------4-6s7------|
A|--------------------------|---------------|------7------------|
E|--------------------------|---------------|-------------------|

  D                   G/A                  Gmaj7
  E E E E a E E E E   E E E E a E E E E    a Q   E E E E a Q
e|-----------------5-|-------5-----------||--------------------|
B|-------5-5s7s5-7---|-8s7-8---5s7-5---5-||-5s7\----3-3---3s5--|
G|-7s6-7-------------|---------------7---||-------4-----4------|
D|-------------------|-------------------||--------------------|
A|-------------------|-------------------||--------------------|
E|-------------------|-------------------||--------------------|

                       Bbmaj7
                                        |-3-| |-3-| |-3-| |-3-|
  +E   E E E E E E E   E E Q  E E E E   E E E E E E E E E E E E
e|--------------------|----------------|-----------------------3-|
B|-(5)\---3---5p3-5-5-|-3--------------|-----------------3-5h6---|
G|------4---4---------|---3s2----------|-----2-----2-3h5---------|
D|--------------------|------------0-2h|=3h5---3h5---------------|
A|--------------------|----------4-----|-------------------------|
E|--------------------|----------------|-------------------------|

    D                 D/C                      A7
                                 ~~~~~~~
  a Q  E E Q  a E E   E E  a  E  E  +Q.    E   E Q  E E E E S S
e|-3s5--5p3-5--5s7-5-|-5---10s12-10-(10)---10-|-9-7--5s3-3s2-2s1s=|
B|-------------------|---7--------------------|-------------------|
G|-------------------|------------------------|-------------------|
D|-------------------|------------------------|-------------------|
A|-------------------|------------------------|-------------------|
E|-------------------|------------------------|-------------------|

  Dmaj7            Gmaj7
                                          |-3-| |-3-|  |-3--|
  Q  Q  E E E E    Q  a E E +E  E Q    Q  E E E E E E  E E  E
e|-2-----7p5-7-7-||-5--------------5--|-------------------8-10p=|
B|---------------||----5s7---------5--|--------------8-10-------|
G|---------------||--------------7----|----------7-9------------|
D|---------------||--------9-(9)------|------7-9----------------|
A|---------------||-------------------|-------------------------|
E|---------------||-------------------|-------------------------|

  Bbmaj7
  |-3--|  |-3-|  |-3--| |--3--|
  E  E E  E E E  E E  E E  E  E
e|-8-10p8------8----8------------|
B|--------10-8---11---11-8----11-|
G|-------------------------10----|
D|-------------------------------|
A|-------------------------------|
E|-------------------------------|

                                     D
  |-3--|  |-3--| |-3--|      |-3-|
  E  E E  E E  E E  E E  S S S S S   Q  E E a E E a E E
e|----------------------------------|--------------------|
B|-8-11p8---------------------------|--------------------|
G|--------10-7----------------------|--------------------|
D|-------------10-8-----------------|------------------5-|
A|------------------10-8------------|------------5-5s7---|
E|-----------------------10s8-6-5-3-|-2--2-2-5s7---------|

    D/C                          Bbmaj7
  a E E a E a E  E  E  a  E  E    Q   E  S  S  Q  Q
e|---------------------------10-|---------------------|
B|------------------10-10s12----|-11--10-11s10s11-----|
G|-----------7s9-11-------------|---------------------|
D|-----7-7s9--------------------|---------------------|
A|-7s9--------------------------|---------------------|
E|------------------------------|---------------------|

  G/A
  Q   S  S S  S S  S  S  S S S  S S
e|----------9h12-9-------10-7------9--|
B|----10h12--------10h12------8h10----|
G|------------------------------------|
D|------------------------------------|
A|------------------------------------|
E|------------------------------------|

  Gmaj7                                       Bbmaj7
  S S S S S S E Q  E S S   E E E E E  E E E    Q   E E E E E E
e|-5-----7-------5--------|--------------6-8-|-10--10-8---8-6s5-|
B|---7-8---8---7----------|-------7-8-10-----|------------------|
G|-----------4------7-9s8s|=9-7-9--------7-9-|-10--10-9---9-7s6-|
D|------------------------|------------------|------------------|
A|------------------------|------------------|------------------|
E|------------------------|------------------|------------------|

                   D                     D/C
                        |-3-|
  H    E E E a E   +Q   E E E a Q  E E   E E E E E E E E
e|--------6-6-5---|------------5----5-5-|---5s4-5s4-5------|
B|------------5h7-|-(7)--7-5---5h7--5-8-|---7s6-5s4--------|
G|--------7-7-----|----------7----------|-----------7s6----|
D|----------------|---------------------|------------------|
A|----------------|---------------------|------------------|
E|----------------|---------------------|------------------|

  G/B              D                   G/A
  Q  E E E E E E   Q  a E E E E E E    Q  E E +E  E E E
e|----------------|------------------|-------------------|
B|-5--5-------3s2-|------------------|-------------------|
G|-6--4-----------|------------7-7---|-6--6-6-(6)S4---6s=|
D|------7s6-5-4---|--------7-9-----8-|-7--7-7-(7)S5---7s=|
A|----------------|----7s9-----------|-------------------|
E|----------------|------------------|-------------------|

                   F/G
  E E Q  E E E E    E E E E Q  Q    Q  E E E E E E
e|----------------|----------------|------5-5-5-7-5\-|
B|----------------|----------------|-----------------|
G|-4-4-4--6s4-4-4-|----4-2-2-------|-----------------|
D|-5-5-5--7s5-5-5-|-/5-5-3-3-1-----|-----------------|
A|----------------|----------------|-----------------|
E|----------------|----------------|-----------------|

  G/A                                            D
  E E E E Q   E  E    +E  E E E +E  E  a  E  E    +E   E  E  E  +Q    E  E
e|-------------9----|----------------0-10h12-10-|-(10)----------------12-14-|
B|---5-5-5-5/----10-|-(10)----------------------|------10-10-10-(10)--------|
G|------------------|------9-9-9-(9)------------|---------------------------|
D|------------------|---------------------------|---------------------------|
A|------------------|---------------------------|---------------------------|
E|------------------|---------------------------|---------------------------|

  G/A                    Gmaj7
   Q   E  E  Q   E  E     Q   E  E  +H       E  E  E  E  E  E  E  E
e|-15--14-12--------12-||-10----------------|------------------------|
B|-----------15--14----||-----12-12-(12)----|------------------12-15-|
G|---------------------||-------------------|------------12-14-------|
D|---------------------||-------------------|---12-11-12-------------|
A|---------------------||-------------------|------------------------|
E|---------------------||-------------------|------------------------|

  Bbmaj7
            |--3--|
   Q.    E  E  E  E  E  E    +E   E  E  E Q   E  E
e|-12-------13p12----12----|------------------------|
B|-------15-------15----15-|-(15)-------------------|
G|-------------------------|------14s13s14----12-14-|
D|-------------------------|------------------------|
A|-------------------------|------------------------|
E|-------------------------|------------------------|

     D
   a  Q   E  E  Q   a  E  E
e|--------12-12-10------------|
B|------------------10h12-12--|
G|-10s11----------------------|
D|----------------------------|
A|----------------------------|
E|----------------------------|

                                                           Bass Solo
  D/C                 A7                     Dmaj7
                               |-3-|
  Q  a  E  E Q  Q     a Q.   E E E E +E  E   E E H.         Wx62
e|-------------------|----------------------|-------------|---------|
B|-------------------|-5--------------------|-------------|---------|
G|----9s11-11-9--7\--|-4h6----4-------------|-----3-------|---------|
D|-------------------|----------7s6s7-(7)-5-|-4s3---------|---------|
A|-------------------|----------------------|-------------|---------|
E|-------------------|----------------------|-------------|---------|

                             H.=H
D.C. al Cod&
             D/C               A7                Dmaj7
  W          Q  E E +E  Q  E   a Q.   E Q.   E   E E Q  +Q   E E   +W
e|----------|------------2----|-----------------|-------------0---|--------|
B|----------|------3-(3)----3-|-5---------------|-----3--(3)----3-|-(3)----|
G|----------|----2------------|-4h6-------------|-----6--(6)------|--------|
D|----------|-----------------|--------4--------|-----------------|--------|
A|----------|-3---------------|----------7----5-|-4---------------|--------|
E|----------|-----------------|-----------------|-----------------|--------|

************************************

Duration Legend
---------------
W - whole; H - half; Q - quarter; E - 8th; S - 16th; T - 32nd; X - 64th; a - acciaccatura
+ - note tied to previous; . - note dotted; .. - note double dotted
Uncapitalized letters represent notes that are staccato (1/2 duration)

| (n)  Ghost note
| h    Hammer-on
| \    Slide down
| PM   Palm mute
| p    Pull-off
| ~    Vibrato
| /    Slide up
| *    Natural harmonic

************************************
Suggest correction
comments
print report bad tab
1 comment total.
+1 reply
Pavura 72 May 17, 2008 04:17 AM

Perfect tab man,
Big thanks.

guest
You may want to rate the tab now too:
select rating
Wanna post a correction for this tab? Suggest correction