Oops, an error
Loading. Please wait.

Cinema Paradiso Tab

version 1
version 1

Whole song

Interactive

22,228 views 21 this week
no commentswrite comment
1 2 3 4 5
accurate
x 5
add to favorites
launch autoscroll
font size
0
reset
how to read this tab
guitar tuner
Autoscroll
slow
fast
+/-
esc
set tempo
stop
Help us to improve Ultimate-Guitar.com Take our survey!
×
Author
Difficulty
intermediate
Transcribed for guitar. This is only the first part of the song. 

e	|--------------------------------------------------------------|
B	|-------------------1--------------------------------3--3------|
G	|--3-------3-2-0--2-------------------------5-3-2-3--3---------|
D	|--5-----1--------3---3-1--1-0----------7---5--------3---------|
A	|--5--5--3--------3--------1--------5-8-----5------------------|
E	|--3--------------1---------------5---------3--------1---------|

e	|--------------------------------------------------------------|
B	|---------6--4----------8-6---6-4------------1--------3--3-----|
G	|------------5-------5------------7-5--3-3---3-3-2----0--0-----|
D	|-5-4-5------5-------7--------4--------5-----------3--1--2-----|
A	|-6---5------3----------------5--------5-----------------------|
E	|---------------6-5--------------------3-----1-----------------|

e	|--------------------------------------------------------------|
B	|--------------------------------------------------------------|
G	|-2-3--3s2----0-2----------------------------------------------|
D	|------0----0------4-------------------------------------------|
A	|------------------5-------------------------------------------|
E	|--------------------------------------------------------------|
Suggest correction
comments
print report bad tab
guest
You may want to rate the tab now too:
select rating
Wanna post a correction for this tab? Suggest correction