Oops, an error
Loading. Please wait.

James Tab

version 1
version 1

Whole song

Interactive

6,762 views 27 this week
no commentswrite comment
1 2 3 4 5
1 last vote to show rating
add to favorites
launch autoscroll
font size
0
reset
how to read this tab
guitar tuner
Autoscroll
slow
fast
+/-
esc
set tempo
stop
Help us to improve Ultimate-Guitar.com Take our survey!
×
Author
Difficulty
advanced
G/D              A/C# A/C#                           
     Q    E  E  E  Q    E      E  Q.     Q    Q       Q    E  E  E  Q    E   
e|--8----7--7--L--5----5---|--L--3------7----5----|--5----3--3--L--2----5--|
B|--8-------7--L-------3---|--L---------5----5----|--5-------4--L--4----3--|
G|--8-------8--L-------4---|--L---------6----6----|--5-------5--L--5----4--|
D|---------------------0---|--L-------------------|------------------------|
A|-------------------------|------------4----4----|--3------------------2--|
E|-------------------------|----------------------|------------------------|

       G/B    Gm/Bb         D/A                                             
    E  Q.     Q     Q       Q    E  E  E  Q    E     E  Q    E  E  Q    E   
e|--L--3------3-----2----|--2----0--0--L-------0--|--L--1----0--L-------0--|
B|--L--3------3----------|--3-------3--L--3----1--|--L-------1--L--3----3--|
G|--L--4------3----------|--2-------2--L-------2--|--L-------2--L-------2--|
D|-----------------------|------------------------|------------------------|
A|--L--2------1----------|--0-------0--L-------0--|--L-------0--L-------0--|
E|-----------------------|------------------------|------------------------|

                                                               B/G             
    E  Q    E  E  Q    E     E  E  Q    E  Q    E     E  E  E  E   E  Q    E   
e|--L--2----0--L----------|----------------0-------|--------5--7---L----------|
B|--L-------3--L--3----0--|--L--0--3------------3--|-----7-----7---L--7----5--|
G|--L-------2--L-------2--|--L----------2--2-------|-----------------------6--|
D|---------------------0--|--L-------------0-------|-----7-----5---L-------5--|
A|--L-------0--L----------|----------------0-------|-----5--------------------|
E|---------------------3--|--L-----3---------------|-----------------------6--|

            D/B             B/G       Esus2                                 
    E  Q    E   H           E   E  E  Q     Q    E     E  Q    Q    Q.      
e|-----5-----------------|--------------------------|----------------------|
B|--L-------7---L--------|--------------------------|----------------------|
G|--L-------7---L--------|--4---4--4--4-----2----4--|--L--4----4----2------|
D|--L-------7---L--------|--4---4--4--2-----2----4--|--L--4----2----2------|
A|-----------------------|--------------------------|----------------------|
E|--L-------7---L--------|--3---------2-----2----3--|--L-------2----2------|

       D     B/G                            D/B                 
    E  E  E  E   E   Q     E      E   Q     Q     S  S  E   E   
e|--------5--7---L--10----12--|---L--12----10----------10------|
B|-----7-----7---L--------12--|---L--12----10----10-12-----12--|
G|----------------------------|----------------------------11--|
D|-----7-----5---L--------11--|---L---------9------------------|
A|-----5----------------------|----------------------------10--|
E|----------------------------|--------------------------------|

    E  S S E  Q    S S E  E     E  S S E  Q     S  S  E   E   
e|---------5-----------------|-----------------------10------|
B|-----5-7----7--------3-----|-----------------10-12-----12--|
G|------------6----2-4----4--|---------2-----------------11--|
D|------------------------4--|-----2-4----4------------------|
A|------------5--------------|------------2--------------10--|
E|------------------------3--|------------2------------------|

                                                               B/G             
    E  S S E  E  E  E  E  E     E  Q.     H           E  E  E  E   E  Q    E   
e|---------5-----------------|---------------------|--------5--7---L----------|
B|-----5-7----7--------------|---------------------|-----7-----7---L--7----5--|
G|------------6--------------|-----7------L--------|-----------------------6--|
D|------------------9--7--9--|-----7------L--------|-----7-----5---L-------5--|
A|------------5--------------|---------------------|-----5--------------------|
E|---------------------------|---------------------|-----------------------6--|

            D/B             B/G       Esus2                                  
    E  Q    E   H           E   E  E  Q     Q    E     E  Q    Q    E  Q     
e|-----5-----------------|--------------------------|------------------0----|
B|--L-------7---L--------|--------------------------|---------------3--2----|
G|--L-------7---L--------|--4---4--4--4-----2----4--|--L--4----4----4--0----|
D|--L-------7---L--------|--4---4--4--2-----2----4--|--L--4----2------------|
A|-----------------------|--------------------------|------------------0----|
E|--L-------7---L--------|--3---------2-----2----3--|--L-------2----3-------|

       D     B/G                            D/B                 
    E  E  E  E   E   Q     E      E   Q     Q     S  S  E   E   
e|--------5--7---L--10----12--|---L--12----10----------10------|
B|-----7-----7---L--------12--|---L--12----10----10-12-----12--|
G|----------------------------|----------------------------11--|
D|-----7-----5---L--------11--|---L---------9------------------|
A|-----5----------------------|----------------------------10--|
E|----------------------------|--------------------------------|

    E  S S E  Q    S S E  E     E  S S E  Q     S  S  E   E   
e|---------5-----------------|-----------------------10------|
B|-----5-7----7--------3-----|-----------------10-12-----12--|
G|------------6----2-4----4--|---------2-----------------11--|
D|------------------------4--|-----2-4----4------------------|
A|------------5--------------|------------2--------------10--|
E|------------------------3--|------------2------------------|

    E  S S E  E  E  E  E  E     E  Q.     Q    E  E     Q    E  E  E  Q    E   
e|---------5-----------------|-----------------------|------------------------|
B|-----5-7----7--------------|-----------------5-----|-------5--7--L--5-------|
G|------------6--------------|-----7------L-------7--|--6-------7--L-------7--|
D|------------------9--7--9--|-----7------L----------|--5------------------7--|
A|------------5--------------|-----------------------|------------------------|
E|---------------------------|-----------------------|--5-------6--L-------7--|

                                D                       
    E  Q     E   Q.      E      Q     E  Q    Q     E   
e|--------------------------|------------9----7--------|
B|-----7----10---L----------|--------10--9---------10--|
G|--L--------9---L------12--|--11-------------------9--|
D|--L-----------------------|--12----------------------|
A|--------------------------|------------7----------9--|
E|--L--------9---L----------|--10----------------------|

                                 A                         
     E  Q     E   Q.      E      H         E   E   E   E   
e|------9----12---L------10--|---9---------9--10--12--10--|
B|---L-------12---L----------|--10--------------------10--|
G|---L-----------------------|---9------------------------|
D|---------------------------|----------------------------|
A|---L-------11---L----------|---0--------10-----------9--|
E|---------------------------|----------------------------|

                                                      D6          A             
     E   Q    E  Q    E  E     Q.     E  H            E   E   E   Q     Q.      
e|---L----------------------|--7------5--L--------|--10--10--10---9------------|
B|---L--10----7--L----------|--8------------------|--12--12--12--10----10------|
G|------------7--L----9--7--|---------------------|--------------------11------|
D|--------------------------|---------------------|----------------------------|
A|---L----------------------|---------0--L--------|---0------------------------|
E|------------7--L----------|---------------------|----------------------------|

             B/G                       D/B             B/G       Esus2          
    E  E  E  E   E  Q    E     E  Q    E   H           E   E  E  Q     Q    E   
e|--------5--7---L----------|-----5-----------------|--------------------------|
B|-----7-----7---L--7----5--|--L-------7---L--------|--------------------------|
G|-----------------------6--|--L-------7---L--------|--4---4--4--4-----2----4--|
D|-----7-----5---L-------5--|--L-------7---L--------|--4---4--4--2-----2----4--|
A|-----5--------------------|-----------------------|--------------------------|
E|-----------------------6--|--L-------7---L--------|--3---------2-----2----3--|

                              D     B/G               
    E  Q    Q    Q.        E  E  E  E   E   Q     E   
e|----------------------|--------5--7---L--10----12--|
B|----------------------|-----7-----7---L--------12--|
G|--L--4----4----2------|----------------------------|
D|--L--4----2----2------|-----7-----5---L--------11--|
A|----------------------|-----5----------------------|
E|--L-------2----2------|----------------------------|

               D/B                                             
     E   Q     Q     S  S  E   E     E  S S E  Q    S S E  E   
e|---L--12----10----------10------|---------5-----------------|
B|---L--12----10----10-12-----12--|-----5-7----7--------3-----|
G|----------------------------11--|------------6----2-4----4--|
D|---L---------9------------------|------------------------4--|
A|----------------------------10--|------------5--------------|
E|--------------------------------|------------------------3--|

    E  S S E  Q     S  S  E   E     E  S S E  E  E  E  E  E   
e|-----------------------10------|---------5-----------------|
B|-----------------10-12-----12--|-----5-7----7--------------|
G|---------2-----------------11--|------------6--------------|
D|-----2-4----4------------------|------------------9--7--9--|
A|------------2--------------10--|------------5--------------|
E|------------2------------------|---------------------------|

         NH                
    E    Q.     H          
e|-----------------------|
B|-----<>7---------------|
G|-----<>7------L--------|
D|-----<>7------L--------|
A|-----------------------|
E|-----------------------|
Suggest correction
Give kudos to tab author, rate the tab!
1 2 3 4 5
comments
print report bad tab
guest
You may want to rate the tab now too:
select rating
Wanna post a correction for this tab? Suggest correction