Oops, an error
Loading. Please wait.

I La La La Love You tab

version 1
version 1

Whole song

Interactive

610 views 1 this week
no commentswrite comment
1 2 3 4 5
2 more votes to show rating
add to favorites
×
Save as Personal and add changes to this tab that will be seen only by you. Learn more ›
×
You can save this tab as Personal to edit and correct it or add notes. All changes will be seen only by you. Learn more »
launch autoscroll
font size
0
reset
how to read this tab
guitar tuner
edit
Autoscroll
slow
fast
+/-
esc
set tempo
stop
Author
Difficulty
Tabbers playing skills
intermediate
advanced ++
-------------------------------------------------------------------------------
                             I LA LA LA LOVE YOU - Pat Travers
-------------------------------------------------------------------------------


Tabbed by: Isaias Garcia (TexasFury)

Tuning: Standard


     Intro
     <  <  <  <  <  <  <  <     <  <  <  <  <  <  <  <     <  <  <  <  <  <  <  <
     E  E  E  E  E  E  E  E     E  E  E  E  E  E  E  E     E  E  E  E  E  E  E  E
E||--------------------------|--------------------------|--------------------------|
B||--------------------------|--------------------------|--------------------------|
G||--------------------------|--------------------------|--------------------------|
D||--9--9--9--9--9--9--9--9--|--9--9--9--9--9--9--9--9--|--9--9--9--9--9--9--9--9--|
A||--------------------------|--------------------------|--------------------------|
E||--------------------------|--------------------------|--------------------------|


  <  <  <  <  <  <  <  <     <  <  <  <  <  <  <  <     <  <  <  <  <  <  <  <
  E  E  E  E  E  E  E  E     E  E  E  E  E  E  E  E     E  E  E  E  E  E  E  E
--------------------------|--------------------------|--------------------------|
--------------------------|--------------------------|--------------------------|
--------------------------|--------------------------|--------------------------|
--9--9--9--9--9--9--9--9--|--9--9--9--9--9--9--9--9--|--9--9--9--9--9--9--9--9--|
--------------------------|--------------------------|--------------------------|
--------------------------|--------------------------|--------------------------|


  <  <  <  <  <  <  <  <     <  <  <  <   <   <   <  <
  E  E  E  E  E  E  E  E     E  E  E  E   E   E   E  E     E  E  S S E  E  E  S S E
--------------------------|-----------------------------|----------------------------|
--------------------------|-----------------------------|----------------------------|
--------------------------|-----------------------------|----------------------------|
--9--9--9--9--9--9--9--9--|--9--9--9--9--11--11--11--7--|----------9------------9----|
--------------------------|-----------------------------|----------------------------|
--------------------------|-----------------------------|--7--7--7---7--7--7--7---7--|


  S S E  S S E  E  E  S S E     E  E  S S E  E  E  S S E     S S E  S S E  S S S S S S S S
-----------------------------|----------------------------|--------------------------------||
-----------------------------|----------------------------|--------------------------------||
-----------------------------|----------------------------|--------------------------------||
----9------9------------9----|----------9------------9----|----9------9------9-7-6-----6-7-||
-----------------------------|----------------------------|------------------------7-9-----||
------7--7---7--7--7--7---7--|--7--7--7---7--7--7--7---7--|------7--7---7--7---------------||


  Verse 1
  E.  S H.              E.  S H.              E.  S E  E  H           E  E  S S E  E  E  
S E
---------------------|---------------------|-----------------------|----------------------------|
---------------------|---------------------|-----------------------|----------------------------|
---------------------|---------------------|--4---4-L--2--L--------|----------------------------|
--9---7-L------------|--4---2-L------------|--4---4-L--2--L--------|----------9------------9----|
--9---7-L------------|--4---2-L------------|--2---2-L--0--L--------|----------------------------|
--7---5-L------------|--2---0-L------------|-----------------------|-----7--7---7--7--7--7---7--|


  S S E  S S E  E  E  S S E     E.  S H.              E.  S H.              E.  S E  E  H
-----------------------------|---------------------|---------------------|-----------------------|
-----------------------------|---------------------|---------------------|-----------------------|
-----------------------------|---------------------|---------------------|--4---4-L--2--L--------|
----9------9------------9----|--9---7-L------------|--4---2-L------------|--4---4-L--2--L--------|
-----------------------------|--9---7-L------------|--4---2-L------------|--2---2-L--0--L--------|
------7--7---7--7--7--7---7--|--7---5-L------------|--2---0-L------------|-----------------------|


  E.  S E  E  H           Q    E  E  Q    Q       Q    E  E  Q    Q
-----------------------|-------0----------0----|-------0----------0----|
-----------------------|-------0----------0----|-------0----------0----|
--2---2-L--0--L--------|----------3------------|----------3------------|
--2---2-L--0--L--------|--4----------2---------|--4----------2---------|
--0---0-L--------------|--4----------2---------|--4----------2---------|
-----------3--L--------|--2----------0---------|--2----------0---------|


  E  E  S S E  E  E  S S E     S S E  S S E  E  E  S S E     E  E  S S E  E  E  S S E
----------------------------|-----------------------------|----------------------------|
----------------------------|-----------------------------|----------------------------|
----------------------------|-----------------------------|----------------------------|
----------9------------9----|----9------9------------9----|----------9------------9----|
----------------------------|-----------------------------|----------------------------|
--7--7--7---7--7--7--7---7--|------7--7---7--7--7--7---7--|--7--7--7---7--7--7--7---7--|


                                    Verse 2
                                                      ^ v    v                 ^ v
  S S E  S S E  S S S S S S S S     E.  S H        E  S S    E.  S H        E  S S
--------------------------------||------------------------|------------------------|
--------------------------------||--------------------x-x-|--------------------x-x-|
--------------------------------||--------------------x-x-|--------------------x-x-|
----9------9------9-7-6-----6-7-||--9---7-L--------L--x-x-|--4---2-L--------L--x-x-|
------------------------7-9-----||--9---7-L--------L------|--4---2-L--------L------|
------7--7---7--7---------------||--7---5-L--------L------|--2---0-L--------L------|


  E.  S E  E  H           E  E  S S E  E  E  S S E     S S E  S S E  E  E  S S E
-----------------------|----------------------------|-----------------------------|
-----------------------|----------------------------|-----------------------------|
--4---4-L--2--L--------|----------------------------|-----------------------------|
--4---4-L--2--L--------|----------9------------9----|----9------9------------9----|
--2---2-L--0--L--------|----------------------------|-----------------------------|
-----------------------|-----7--7---7--7--7--7---7--|------7--7---7--7--7--7---7--|


                                          ^ v
  E.  S H.              E.  S H        E  S S    E.  S E  E  H           E.  S E  E  H
---------------------|------------------------|-----------------------|-----------------------||
---------------------|--------------------x-x-|-----------------------|-----------------------||
---------------------|--------------------x-x-|--4---4-L--2--L--------|--2---2-L--0--L--------||
--9---7-L------------|--4---2-L--------L--x-x-|--4---4-L--2--L--------|--2---2-L--0--L--------||
--9---7-L------------|--4---2-L--------L------|--2---2-L--0--L--------|--0---0-L--------------||
--7---5-L------------|--2---0-L--------L------|-----------------------|-----------3--L--------||


  Bridge
      PM        PM PM PM                 PM        PM PM PM
  E   S  S Q    S  S  S  S E  S  S    E  S  S Q    S  S  S  S E  S  S
---------0-L-------------0-L-------|--------0-L-------------0-L-------|
---------0-L-------------0-L-------|--------0-L-------------0-L-------|
-----------------------------------|----------------------------------|
-----------------------------------|----------------------------------|
--4--------------------------------|--4-------------------------------|
--2---2---------0--0--0-------0h-2-|--2--2---------0--0--0-------0h-2-|


     PM        PM PM PM                 PM        PM PM PM
  E  S  S Q    S  S  S  S E  S  S    E  S  S Q    S  S  S  S E  S  S
--------0-L-------------0-L-------|--------0-L-------------0-L-------|
--------0-L-------------0-L-------|--------0-L-------------0-L-------|
----------------------------------|----------------------------------|
----------------------------------|----------------------------------|
--4-------------------------------|--4-------------------------------|
--2--2---------0--0--0-------0h-2-|--2--2---------0--0--0-------0h-2-|


     PM        PM PM PM                 PM        PM PM PM
  E  S  S Q    S  S  S  S E  S  S    E  S  S Q    S  S  S  S E  S  S
--------0-L-------------0-L-------|--------0-L-------------0-L-------|
--------0-L-------------0-L-------|--------0-L-------------0-L-------|
----------------------------------|----------------------------------|
----------------------------------|----------------------------------|
--4-------------------------------|--4-------------------------------|
--2--2---------0--0--0-------0h-2-|--2--2---------0--0--0-------0h-2-|


     PM        PM PM PM                 PM        PM PM PM
  E  S  S Q    S  S  S  S E  S  S    E  S  S Q    S  S  S  S E  S  S
--------0-L-------------0-L-------|--------0-L-------------0-L-------|
--------0-L-------------0-L-------|--------0-L-------------0-L-------|
----------------------------------|----------------------------------|
----------------------------------|----------------------------------|
--4-------------------------------|--4-------------------------------|
--2--2---------0--0--0-------0h-2-|--2--2---------0--0--0-------0h-2-|


     PM        PM PM PM                 PM        PM PM PM
  E  S  S Q    S  S  S  S E  S  S    E  S  S Q    S  S  S  S E  S  S
--------0-L-------------0-L-------|--------0-L-------------0-L-------|
--------0-L-------------0-L-------|--------0-L-------------0-L-------|
----------------------------------|----------------------------------|
----------------------------------|----------------------------------|
--4-------------------------------|--4-------------------------------|
--2--2---------0--0--0-------0h-2-|--2--2---------0--0--0-------0h-2-|


     PM        PM PM PM                 PM        PM PM PM
  E  S  S Q    S  S  S  S E  S  S    E  S  S Q    S  S  S  S E  S  S    H        Q    Q
--------0-L-------------0-L-------|--------0-L-------------0-L-------|---------------------|
--------0-L-------------0-L-------|--------0-L-------------0-L-------|---------------------|
----------------------------------|----------------------------------|--4------------------|
----------------------------------|----------------------------------|--4--------2---------|
--4-------------------------------|--4-------------------------------|--2--------0----2----|
--2--2---------0--0--0-------0h-2-|--2--2---------0--0--0-------0h-2-|--2-------------0----|


                                                                     Interlude
                                                                     <  <  <  <  <  <  <  <
  H        Q    Q       H        Q    Q       H        Q    Q        E  E  E  E  E  E  E  E
---------------------|---------------------|---------------------||--------------------------|
---------------------|---------------------|---------------------||--------------------------|
--4------------------|--4------------------|--4------------------||--------------------------|
--4--------2---------|--4--------2---------|--4--------2---------||--9--9--9--9--9--9--9--9--|
--2--------0----2----|--2--------0----2----|--2--------0---------||--------------------------|
--2-------------0----|--2-------------0----|--2-------------0----||--------------------------|


  <  <  <  <  <  <  <  <     <  <  <  <  <     <  <     <  <  <  <  <  <  <
  E  E  E  E  E  E  E  E     E  E  E  E  E  E  E  E     E  E  E  E  E  E  Q
--------------------------|--------------------------|-------------------------|
--------------------------|--------------7--L--7-----|-------------------------|
--6--6--6--6--6--6--6--6--|--7--7--7--7-----------7--|--6--6--6--6-------------|
--------------------------|--------------------------|--------------7--7-------|
--------------------------|--------------------------|--------------------7----|
--------------------------|--------------------------|-------------------------|


                                                                  tr
  H.            E    S S    E   S S E   E   H           Q     E   E       H
-------------------------|---------------------------|-----------------------------|
--7b------------7pb--7-5-|--7b--5---8b--8b--L--------|--L\-------------------------|
-------------------------|--------5------------------|-----------------------------|
-------------------------|---------------------------|-----------12(14)---L--------|
-------------------------|---------------------------|-----------------------------|
-------------------------|---------------------------|-----------------------------|


   S  S  S  S  S  S  S  S  S  S  S   S   S   E.      E  S S S E.  S S S S S E.
--------------------------------------------------|-----------0-------------0---|
--------------------------14-15-17S-18S-19S-20b---|-----------0-------------0---|
--------------------13-16-------------------------|-----------------------------|
--12-14-------14-16-------------------------------|-----------------------------|
--------14-16-------------------------------------|---------------4-4-4-4-------|
--------------------------------------------------|--0--0-0-0-----2-2-2-2-2-----|


  E  S S S E.  S S S S S E.     E  S S S E.  S S S S S E.     S S S S S E.
--0--------0-------------0---|-----------0-------------0---|------------0---|
--0--------0-------------0---|-----------0-------------0---|------------0---|
-----------------------------|-----------------------------|----------------|
-----------------------------|-----------------------------|----------------|
---------------4-4-4-4-------|-----------------------------|--2-2-2-2-------|
-----0-0-0-----2-2-2-2-2-----|--0--0-0-0-----2-2-2-2-2-----|--0-0-0-0-0-----|


  E  S S S S S S S S S S S S S S    W                   H        S S S S S S S S
---------------------------------|-------------------|---------------------------||
---------------------------------|-------------------|---------------------------||
---------------------------------|-------------------|--2--------2-----------1-2-||
---------------------------------|--5----------------|--2--------------0-2-4-----||
---------------------------------|--5----------------|--0----------2-4-----------||
--2--2-2-2-2-2-2-2-2-2-2-2-2-2-2-|--3----------------|---------------------------||


  Verse 3
                         v                 ^ v
  Q    E  E  H           E.  S H        E  S S    E.  S E  E  H           E.  S E  E  H
----------------------|------------------------|-----------------------|-----------------------|
----------------------|--------------------x-x-|-----------------------|-----------------------|
--4-------2--L--------|--------------------x-x-|--4---4-L--2--L--------|--2---2-L--0--L--------|
--4-------2--L--------|--4---2-L--------L--x-x-|--4---4-L--2--L--------|--2---2-L--0--L--------|
--2-------0--L--------|--4---2-L--------L------|--2---2-L--0--L--------|--0---0-L--------------|
----------------------|--2---0-L--------L------|-----------------------|-----------3--L--------|


  Q    E  E  Q    Q       Q    E  E  Q    Q       E  E  S S E  E  E  S S E
-------0----------0----|-------0----------0----|----------------------------|
-------0----------0----|-------0----------0----|----------------------------|
----------3------------|----------3------------|----------------------------|
--4----------2---------|--4----------2---------|----------9------------9----|
--4----------2---------|--4----------2---------|----------------------------|
--2----------0---------|--2----------0---------|--7--7--7---7--7--7--7---7--|


                                PM PM PM   PM PM PM PM   PM    PM PM PM   PM PM PM PM   PM
  S S E  S S E  E  E  S S E     E  E  S  S E  E  E  S  S E     E  E  S  S E  E  E  S  S E
-----------------------------|------------------------------|------------------------------|
-----------------------------|------------------------------|------------------------------|
-----------------------------|------------------------------|------------------------------|
----9------9------------9----|-----------9-------------9----|-----------9-------------9----|
-----------------------------|------------------------------|------------------------------|
------7--7---7--7--7--7---7--|--7--7--7----7--7--7--7----7--|--7--7--7----7--7--7--7----7--|


                                                                 Outro - 184 BPM
  PM PM PM   PM PM PM PM   PM    PM PM PM   PM PM PM PM   PM
  E  E  S  S E  E  E  S  S E     E  E  S  S E  E  E  S  S E      Q     Q     E   E   Q
------------------------------|------------------------------|----------------------------|
------------------------------|------------------------------|----------------------------|
------------------------------|------------------------------|--16----16----16--16--16----|
-----------9-------------9----|-----------9-------------9----|----------------------------|
------------------------------|------------------------------|--14----14----14--14--14----|
--7--7--7----7--7--7--7----7--|--7--7--7----7--7--7--7----7--|----------------------------|


   Q     Q     E   E   Q        Q     Q     E   E   Q        Q     Q     E   E   Q
----------------------------|----------------------------|----------------------------|
----------------------------|----------------------------|----------------------------|
--16----16----16--16--16----|--16----16----16--16--16----|--16----16----16--16--16----|
----------------------------|----------------------------|----------------------------|
--14----14----14--14--14----|--14----14----14--14--14----|--14----14----14--14--14----|
----------------------------|----------------------------|----------------------------|


   Q     Q     E   E   Q        Q     Q     E   E   Q        Q     Q     E   E   Q
----------------------------|----------------------------|----------------------------|
----------------------------|----------------------------|----------------------------|
--16----16----16--16--16----|--16----16----16--16--16----|--16----16----16--16--16----|
----------------------------|----------------------------|----------------------------|
--14----14----14--14--14----|--14----14----14--14--14----|--14----14----14--14--14----|
----------------------------|----------------------------|----------------------------|


   Q     Q     E   E   Q
------------------------------||
------------------------------||
--16----16----16--16--16\~----||
------------------------------||
------------------------------||
------------------------------||


Duration Legend
---------------
W - whole
H - half
Q - quarter
E - 8th
S - 16th

Tablature Legend
----------------
L - tied note
x - dead note
h - hammer on
p - pull off
b - bend
S - shift slide
s - legato slide
~ - vibrato
tr - trill

Get my other tabs for Guitar Pro, Powertab, guitar/bass text and chords at
http://profile.ultimate-guitar.com/TexasFury/contributions/

            
            
Suggest correction
Creating personal tab
Creating personal tab
You can edit any tab online and save it as your Personal.

You can edit, replace or remove any tab part or add personal notes – all changes will be seen only by you.

Personal tabs can be accessed anytime from any device, even offline.
Learn more »
Give kudos to tab author, rate the tab!
1 2 3 4 5
comments
print report bad tab
guest
You may want to rate the tab now too:
select rating
Wanna post a correction for this tab? Suggest correction