Oops, an error
Loading. Please wait.

Los Managers tab

52 views 1 this week
no commentswrite comment
1 2 3 4 5
3 more votes to show rating
add to favorites
×
Save as Personal and add changes to this tab that will be seen only by you. Learn more ›
×
You can save this tab as Personal to edit and correct it or add notes. All changes will be seen only by you. Learn more »
launch autoscroll
font size
0
reset
how to read this tab
guitar tuner
edit
Autoscroll
slow
fast
+/-
esc
set tempo
stop
Primeramente decir que me baso en la transcripción que el usuario
"gorrilla" que ha hecho de esta canción, que es muy buena, y
corrigiendo con ella la que yo había hecho previamente.
La mía viene a completar sólo la estrutura digamos de la canción,
que "gorrilla" quizás ha obviado y da una información más
detallada de la misma.
Por otra parte, su transcripción es mejor que la mía, pero aún y todo
pienso que la mía puede ser útil para la gente.

Otra cosa, esta versión mía está hecha de la audición de una toma en
la que sólo hay dos guitarras y el cantante.
Un saludo!


Pata Negra
Los managers

Intro:
-0-0-0-0-3-1-0--------0--------0-0-0-0-3-1-0--------0-------------
---------------3-1-0----3-1-0----------------3-1-0----3-1-0-------
------------------------------2-----------------------------2-0-2-
------------------------------------------------------------------
------------------------------------------------------------------
------------------------------------------------------------------


                                        E           F     G     A
5---3-----3---1-------1-0-1-3-1-0-3-1---0-----------1-----3-----5-
--5---3----3---1----1-----------------3-0-----------1-----3-----5-
-----------------2----------------------1-----------2-----4-----6-
----------------------------------------2-----------3-----5-----7-
----------------------------------------2-----------3-----5-----7-
----------------------------------------0-------3-2-1-5-4-3-7-6-5-
                                                |
                                                |.."guitarra 1"..
...................|
                   |
         C    E    Am
---------3----0----0
---------5----0----1
---------5----1----2
---------5----2----2
---0-2-3-3----2----0
-3-------x----0----x

ESTROFA 1:
Am            F7           E7        Am
Teníamos unos managers que eran de Huelva
                F7           E7       Am
Y uno de ellos calvo y el otro con coleta
           G7                   F7
Y el Nono decía "¿Qué es lo que pasa?"
               E7 Am E7 F7 Am
¿Qué es lo que pa-a-a-a-asa?
Am               G7                F7
¿Qué 'oscuriad' tan grande es esta guasa?
          E7 Am E7 F7 Am
¿Es esta gua-a-a-a-a-asa?"


ESTRIBILLO:
     F       G     A
Y el Perico con su moto
     C         F7 E7  Am
El Matías con la coleta
      F        G    A
Y el Rafa con su tofito
     C       F7  E7  Am
Y el Nono lleva la mesa


PUENTE: "guitarra 1"

Am             F7        E7        Am
Cogieron un conjunto de corte moderno
              F7         E7              Am
Con las intenciones de forrarse en el momento
              G7                F7
Pero vaya conjunto, conjunto 'istiercol'
             E7 Am E7 F7 Am
Conjunto 'istie-e-e-e-e-ercol'
               G7             F7
Por poco le roban los instrumentos
           E7 Am E7 F7 Am
Los instrume-e-e-e-e-e-entos


ESTRIBILLO:

     F       G     A
Y el Perico con su moto
     C         F7 E7  Am
El Matías con la coleta
      F        G    A
Y el Rafa con su tofito
     C       F7  E7  Am
Y el Nono lleva la mesa


PUENTE: "guitarra 1"


ESTROFA 3:
Am                  F7      E7     Am
En el Mercedes del padre de uno de ellos
             F7     E7         Am
Fueron a Chipiona a dar un concierto
             G7                     F7
Y la gente decía "¿Qué es lo que pasa,
          E7 Am E7 F7 Am
Que no se o-o-o-o-o-o-oye,
              G7            F
Será de tanto cubata, y tanto polen,
        E7 Am E7 F7 Am
Y tanto pole-e-e-e-en?"


ESTRIBILLO 2:
    F      G    A
Ni médico ni botica
   C         F7 E7   Am
Ni sellos ni cosas desas'
           F       G         A
No hay quien le quite a mi niño
 C     F7 E7  Am
Esa dichosa cabeza


      F     G     A             C    E    Am E  Am
------1-----3-----55555---------3----0----0--0--0
------1-----3-----55555---------5----0----1--0--1
------2-----4-----66666---------5----1----2--1--2
------3-----5-----77777---------5----2----2--2--2
------3-----5-----77777---0-2-3-3----2----0--2--0
--3-2-1-5-4-3-7-6-55555-3-------x----0----x--0--x

            
            
Suggest correction
Creating personal tab
Creating personal tab
You can edit any tab online and save it as your Personal.

You can edit, replace or remove any tab part or add personal notes – all changes will be seen only by you.

Personal tabs can be accessed anytime from any device, even offline.
Learn more »
Give kudos to tab author, rate the tab!
1 2 3 4 5
comments
print report bad tab
guest
Wanna post a correction for this tab? Suggest correction