Oops, an error
Loading. Please wait.

Old And Out Of Tune Tab

2,605 views 1 this week
no commentswrite comment
1 2 3 4 5
please rate
add to favorites
launch autoscroll
font size
0
reset
how to read this tab
guitar tuner
Autoscroll
slow
fast
+/-
esc
set tempo
stop
Help us to improve Ultimate-Guitar.com Take our survey!
×
Intro: acustic                     |Electric
                                   |
e|-55-55--444-44--22-22---------|--|----------------------------------|
B|-55-55--444-44--33-33---------|--|----------------------------------|
G|-66-66--xxx-xx--22-22--777-77-|--|----------------------------------|
D|-77-77--xxx-xx--44-44--777-77-|8X|-777-7--777-7--777-141414-7--7----|
A|-77-77--333-33--44-44--555-55-|--|-777-7--777-7--777-121212-7--7----|
E|-55-55--444-44--22-22---------|--|-555-5--555-5--555--------5--5----|
                                         .      .                .


Intro: Electric cont.

e|-------------------------------------------------------------|
B|-------------------------------------------------------------|
G|-------------------------------------------------------------|
D|-777-141414-7--7--777-141414-777-141414-777-141414-----------|
A|-777-121212-7--7--777-121212-777-121212-777-121212-12-11-9-7-|
E|-555--------5--5--555--------555--------555------------------|
                 .

Verse/chorus

e|------------|
B|------------|
G|----6-----7-|
D|-7--6-4---7-|
A|-7--4-4---5-|
E|-5----2-----|

im not 100% on the acustic part but it sounds pretty close
Suggest correction
Give kudos to tab author, rate the tab!
1 2 3 4 5
comments
print report bad tab
guest
You may want to rate the tab now too:
select rating
Please do not post tabs as comments. Select "correction" instead!