Oops, an error
Loading. Please wait.

Spin Me Around Tab

version 2
version 2

Whole song

9,784 views 42 this week
3 commentsread comments
1 2 3 4 5
excellent!
x 5
add to favorites
launch autoscroll
font size
0
reset
how to read this tab
guitar tuner
Autoscroll
slow
fast
+/-
esc
set tempo
stop
Help us to improve Ultimate-Guitar.com Take our survey!
×
Author
Difficulty
intermediate
theres no tabs for this song.
saw them do this live and i am 99% sure it is correct.
either way it sounds awfully close.
i play this song holding the pick with my pointer finger and thumb
and plucking the bottom strings with my  middle and ring fingers.
                       *************************
                       *Tuning: Standard      *
                       *Song: Spin Me Around  *
                       *Artist: Patent Pending*
                       ************************
h-hammer on
p-pull off
/-slide up
\-slide down
(C)-accent note (whatever the note is)

Intro

E|----------------|----------------|----------------|----------------|
A|-0h2-----2/3----|-3/5-----7/5----|-0h2-----2/3----|-3/5-------3----|
D|----------------|----------------|----------------|-----------x----|
G|-----0-------0--|----0----0------|-----0-------0--|----0------0----|
B|-----3-------5--|----7----8/7----|-----3-------5--|----7------0----|
e|----------------|----------------|----------------|-----------5----|

Verse (3x)

E|----------------|----------------|----------------|----------------|
A|-0h2-----2/3----|-3/5-----7/5----|-0h2-----2/3----|-3/5-------3----|
D|----------------|----------------|----------------|-----------x----|
G|-----0-------0--|----0----0------|-----0-------0--|----0------0----|
B|-----3-------5--|----7----8/7----|-----3-------5--|----7------0----|
e|----------------|----------------|----------------|-----------5----|

the first part of the last Line of the verse is slightly different:

E|----------------|----------------|----------------|----------------|
A|-3/7-----7\3----|-3/5-----10\9---|-0h2-----2/3----|-3/5-------3----|
D|----------------|----------------|----------------|-----------x----|
G|-----0-------0--|----0----0------|-----0-------0--|----0------0----|
B|-----8-------5--|----7----12/10--|-----3-------5--|----7------0----|
e|----------------|----------------|----------------|-----------5----|

Chorus

A7
You're the air in my lungs
Cadd9
you're the song on my tongue
D
that keeps me singin' over and over

Cadd9   G            D
Oh baby you spin me around
             Em     D       Cadd9
just like I always want you to
     G             D
baby I figured you out
                              Em     D
you keep me spinning with the things that you do

G/B                         Cadd9
Now even if the world stops turning
              G   D/f#  Em   D
I'll stay in motion here with you
A7
and if the sky comes crashing down
Cadd9
we'll always have the sound
D
yeah you spin me around

Intro
(The Slide he does is on the E string from the 3rd fret to the 12th, and the he plays 
the 12th fret on the high e string.)

Verse
(only goes through 2 times, and on the second time he plays the variation he played on 
the 4th time through in the first verse)

Chorus

Bridge:

            Am
You spin me around
                  (G/B) Cadd9
The ups and downs cant catch me anymore
Am          Cadd9        G          D
the one and only thing I know for sure

(For this part he strums intro chords, the length of the notes is the same length as in 
the intro/verse)

is that your eyes spin me dizzy when you walk in the room
no time for getting busy cause I'm busy with you
spending all of our time chasing sunsets hoping I can set down next to you

Verse

Chorus

I think this is accurate, either way it sounds good, this is my first tab so hopefully 
it makes enough sense
Suggest correction
comments
print report bad tab
3 comments total.
0 reply
Skenny 16 wrote on June 1 2012, 01:24 pm

The tab is upside down. Bottom line should be the low E, not the high

0 reply
davidthekurt 10 wrote on July 11 2012, 09:27 am

I gave this 5 stars because it's good, but Skenny's right. This is really confusing.

0 reply
Viability 10 wrote on August 3 2013, 05:37 am

e|----------------|----------------|----------------|-----------5----|
B|-----3-------5--|----7----8/7----|-----3-------5--|----7------0----|
G|-----0-------0--|----0----0------|-----0-------0--|----0------0----|
D|----------------|----------------|----------------|-----------x----|
A|-0h2-----2/3----|-3/5-----7/5----|-0h2-----2/3----|-3/5-------3----|
E|----------------|----------------|----------------|----------------|

Verse (3x)

e|----------------|----------------|----------------|-----------5----|
B|-----3-------5--|----7----8/7----|-----3-------5--|----7------0----|
G|-----0-------0--|----0----0------|-----0-------0--|----0------0----|
D|----------------|----------------|----------------|-----------x----|
A|-0h2-----2/3----|-3/5-----7/5----|-0h2-----2/3----|-3/5-------3----|
E|----------------|----------------|----------------|----------------|

the first part of the last Line of the verse is slightly different:

e|----------------|----------------|----------------|-----------5----|
B|-----8-------5--|----7----12/10--|-----3-------5--|----7------0----|
G|-----0-------0--|----0----0------|-----0-------0--|----0------0----|
D|----------------|----------------|----------------|-----------x----|
A|-3/7-----7\3----|-3/5-----10\9---|-0h2-----2/3----|-3/5-------3----|
E|----------------|----------------|----------------|----------------|

guest
You may want to rate the tab now too:
select rating
Please do not post tabs as comments. Select "correction" instead!