Oops, an error
Loading. Please wait.

Spin Me Around tab

version 3
version 3

Whole song

  • I had troubles learning this song at the verse par... Show more
121 views 3 this week
no commentswrite comment
1 2 3 4 5
2 more votes to show rating
add to favorites
×
Save as Personal and add changes to this tab that will be seen only by you. Learn more ›
×
You can save this tab as Personal to edit and correct it or add notes. All changes will be seen only by you. Learn more »
launch autoscroll
font size
0
reset
how to read this tab
guitar tuner
edit
Autoscroll
slow
fast
+/-
esc
set tempo
stop
Author
Difficulty
intermediate
About this tab version
I had troubles learning this song at the verse part so put the tabs and the text together as best as i could. I tried to make it an easier Version to learn. Was this info helpful? Yes No
“Spin Me Around”
by Patent Pending

My first tab. Just a mixed Version from BILLYLEE47 and SACE97 so CREDITS TO THEM!


[Intro]

e|----------------|----------------|----------------|----------------|
B|-----3-------5--|----7----8/7----|-----3-------5--|----7------0----|
G|-----0-------0--|----0----0------|-----0-------0--|----0------0----|
D|----------------|----------------|----------------|-----------0----|
A|-0h2-----2/3----|-3/5-----7/5----|-0h2-----2/3----|-3/5-------x----|
E|----------------|----------------|----------------|-----------3----|

[Verse]

e|----------------|----------------|----------------|----------------|
B|-----3-------5--|----7----8/7----|-----3-------5--|----7------0----|
G|-----0-------0--|----0----0------|-----0-------0--|----0------0----|
D|----------------|----------------|----------------|-----------0----|
A|-0h2-----2/3----|-3/5-----7/5----|-0h2-----2/3----|-3/5-------x----|
E|----------------|----------------|----------------|-----------3----|

1: We'll swim to the center of the ocean begin to investigate the notion

2: We'll race the moon until we find a place that we can call our own

e|----------------|----------------|----------------|----------------|
B|-----3-------5--|----7----8/7----|-----3-------5--|----7------0----|
G|-----0-------0--|----0----0------|-----0-------0--|----0------0----|
D|----------------|----------------|----------------|-----------0----|
A|-0h2-----2/3----|-3/5-----7/5----|-0h2-----2/3----|-3/5-------x----|
E|----------------|----------------|----------------|-----------3----|

that the world's got more than just the two of us

and soon enough it's just the two of us

e|----------------|----------------|----------------|----------------|
B|-----3-------5--|----7----8/7----|-----3-------5--|----7------0----|
G|-----0-------0--|----0----0------|-----0-------0--|----0------0----|
D|----------------|----------------|----------------|-----------0----|
A|-0h2-----2/3----|-3/5-----7/5----|-0h2-----2/3----|-3/5-------x----|
E|----------------|----------------|----------------|-----------3----|

We'll fly the entire solar system to find whatever scientist convince him

You're the proof that perfection can exist and the truth is it will break      

e|----------------|----------------|----------------|----------------|
B|-----8-------5--|----7----12/10--|-----3-------5--|----7------0----|
G|-----0-------0--|----0----0------|-----0-------0--|----0------0----|
D|----------------|----------------|----------------|-----------0----|
A|-3/7-----7\3----|-3/5-----10\9---|-0h2-----2/3----|-3/5-------x----|
E|----------------|----------------|----------------|-----------3----|

that the world belongs to more than the two of us

my heart to miss one day one hour one moment here with you Chorus:

A7
You're the air in my lungs
Cadd9
you're the song on my tongue
D
that keeps me singin' over and over

Cadd9   G            D
Oh baby you spin me around
             Em     D       Cadd9
just like I always want you to
     G             D
baby I figured you out
                              Em     D
you keep me spinning with the things that you do

G/B                         Cadd9
Now even if the world stops turning
              G   D/F#        Em   D
I'll stay in motion here with you
A7
and if the sky comes crashing down
Cadd9
we'll always have the sound
D
yeah you spin me around

[Intro]
(Slide is on the E string from the 3rd fret to the 12th, and play the 15th fret on the e string.)

[Verse]
(only goes through 2 times, and on the second time he plays the variation he played on 
the 4th time through in the first verse)

[Chorus]

A7
You're the air in my lungs
Cadd9
you're the song on my tongue
D
that keeps me singin' over and over

Cadd9   G            D
Oh baby you spin me around
             Em     D       Cadd9
just like I always want you to
     G             D
baby I figured you out
                              Em     D
you keep me spinning with the things that you do

G/B                         Cadd9
Now even if the world stops turning
              G   D/F#        Em   D
I'll stay in motion here with you
A7
and if the sky comes crashing down
Cadd9
we'll always have the sound
D
yeah you spin me...

[Bridge]

  Am
around
                  (G/B) Cadd9
The ups and downs cant catch me anymore
Am          Cadd9        G          D
the one and only thing I know for sure


(Intro chords, length is the same as in the intro/verse)

is that your eyes spin me dizzy when you walk in the room ey

no time for getting busy cause I'm busy with you

spending all of our time chasing sunsets hoping I can set down next to you


[Verse]

e|----------------|----------------|----------------|----------------|
B|-----3-------5--|----7----8/7----|-----3-------5--|----7------0----|
G|-----0-------0--|----0----0------|-----0-------0--|----0------0----|
D|----------------|----------------|----------------|-----------0----|
A|-0h2-----2/3----|-3/5-----7/5----|-0h2-----2/3----|-3/5-------x----|
E|----------------|----------------|----------------|-----------3----|

And we'll hold each other till the day we grow old and think

e|----------------|----------------|----------------|----------------|
B|-----8-------5--|----7----12/10--|-----3-------5--|----7------0----|
G|-----0-------0--|----0----0------|-----0-------0--|----0------0----|
D|----------------|----------------|----------------|-----------0----|
A|-3/7-----7\3----|-3/5-----10\9---|-0h2-----2/3----|-3/5-------x----|
E|----------------|----------------|----------------|-----------3----|

of all the times that I told you I love you more than life itself


[Chorus]

Cadd9   G            D
Oh baby you spin me around
             Em     D       Cadd9
just like I always want you to
     G             D
baby I figured you out
                              Em     D
you keep me spinning with the things that you do

G/B                         Cadd9
Now even if the world stops turning
              G   D/F#        Em   D
I'll stay in motion here with you
A7
and if the sky comes crashing down
Cadd9
we'll always have the sound
D               Cadd9
yeah you spin me around

Cadd9            G
you spin me around



************************************

| /  Slide up
| x  Dead note
| h  Hammer-on
| \  Slide down

************************************

            
            
Suggest correction
Creating personal tab
Creating personal tab
You can edit any tab online and save it as your Personal.

You can edit, replace or remove any tab part or add personal notes – all changes will be seen only by you.

Personal tabs can be accessed anytime from any device, even offline.
Learn more »
Give kudos to tab author, rate the tab!
1 2 3 4 5
comments
print report bad tab
guest
You may want to rate the tab now too:
select rating
Wanna post a correction for this tab? Suggest correction